Oops, an error
Loading. Please wait.

Im Gay bass

version 1
version 1

Whole song

Interactive

2,434 views 1 this week
1 commentread comment
1 2 3 4 5
2 more votes to show rating
add to favorites
×
Save as Personal and add changes to this tab that will be seen only by you. Learn more ›
×
You can save this tab as Personal to edit and correct it or add notes. All changes will be seen only by you. Learn more »
launch autoscroll
font size
0
reset
guitar tuner
edit
Autoscroll
slow
fast
+/-
esc
set tempo
stop
Title: I'm Gay
Artist: Bowling for Soup
Tuning: Standard
Tabbed by: Max S.

~ = let ring

#############################INTRO:

This fucking song is all personality...
G|--------------------------------||
D|--------------------------------||
A|-22222--------22222-------------|| x4
E|--------00000--------2222222----||

G|--------------------------------||
D|--------------------------------||
A|-22------------22---------------|| x2
E|------0022----------0022--------||

##############################VERSE:

Well we've all heard about...
G|-----------------------------------------------------------|
D|-----------------------------------------------------------|
A|-22222222--------------------------------------------------|
E|----------22222222-00000000-22222222-----------------------|

G|-----------------------------------------------------------||
D|-----------------------------------------------------------||
A|-22222222-----------------------------------------4~-2~----||
E|----------22222222-00000000000000000-----0~-2~-4~----------||

#################################CHORUS:

Don't hate us 'cause we're happy...
G|------------------------------------------------------||
D|------------------------------------------------------||
A|-22222222-----------------22222222--------------------||
E|----------22222222-0~--0~----------22222222-0~--0~----||

########################PRE-VERSE:

G|--------------------------------||
D|--------------------------------||
A|-22------------22---------------|| x2
E|------0022----------0022--------||

####################################VERSE:

Let's start a movement, let's start it right now...
G|---------------------------------------||
D|---------------------------------------||
A|-22222222------------------------------||
E|----------22222222-00000000-22222222---||

It's perfectly fine to be a happy individual...
G|---------------------------------------|
D|---------------------------------------|
A|-22222222-99999999-7777777-999999999---|
E|---------------------------------------|

G|---------------------------------------||
D|---------------------------------------||
A|-22222222-99999999-7777777-9~----------||
E|---------------------------------------||

##################################CHORUS:

Don't hate us 'cause we're happy...
G|---------------------------------------|
D|---------------------------------------|
A|-22222222------------------------------|
E|----------22222222-0000000000000000----|

To make someone feel better...
G|--------------------------------------||
D|--------------------------------------||
A|-22222222-----------------------------||
E|----------22222222-0~--0~-------------||

###################################BRIDGE:

That's right, ladies and gentleman...
G|---------------------------------------|
D|---------------------------------------|
A|-2-2-222-------------------------------|
E|----------2-2-222--0-0-000--0-2-4-6----|

G|---------------------------------------|
D|---------------------------------------|
A|-22222222------------------------------|
E|----------22222222-0000000000000000----|

G|---------------------------------------||
D|---------------------------------------||
A|------------4~-2~----------------------||
E|---0~-2~-4~----------------------------||

###################################Ending:

La la-la la, la-la la-la...
G|---------------------------------------||
D|---------------------------------------||
A|-2-2-222-------------------------------|| x5
E|----------2-2-222--0-0-000--0-2-4-6----||

            
            
Suggest correction
Creating personal tab
Creating personal tab
You can edit any tab online and save it as your Personal.

You can edit, replace or remove any tab part or add personal notes – all changes will be seen only by you.

Personal tabs can be accessed anytime from any device, even offline.
Learn more »
Give kudos to tab author, rate the tab!
1 2 3 4 5
comments
print report bad tab
1 comment total.
+1 reply
zeedudette 10 Feb 04, 2008 11:04 AM

Well done dude good tabs - helpful having the lyrics too

guest
You may want to rate the tab now too:
select rating
Wanna post a correction for this tab? Suggest correction