Oops, an error
Loading. Please wait.

Love Sick Stomach Ache bass

546 views 1 this week
no commentswrite comment
1 2 3 4 5
2 more votes to show rating
add to favorites
×
Save as Personal and add changes to this tab that will be seen only by you. Learn more ›
×
You can save this tab as Personal to edit and correct it or add notes. All changes will be seen only by you. Learn more »
launch autoscroll
font size
0
reset
guitar tuner
edit
Autoscroll
slow
fast
+/-
esc
set tempo
stop
-----------------------------------------------------------------------------
		Love Sick Stomach Ache - Bowling for Soup
-----------------------------------------------------------------------------
Tabbed By : Pat
e-mail: RvengeoFaithful7@aol.com
Tuning:  Standard

Intro:  Quiet for the first time.

Intro
G|---------------------------------------------------------|
D|-----7/9-7-6------7/9-7-6------44-66------66-77----------|
A|-777----------555----------333--------555----------------|
E|---------------------------------------------------------| x1

Verse:  "I woke up today, that was my first mistake..."
G|---------------------------------------------------------|
D|-----7/9-7-6------7/9-7-6------44-66------66-77----------|
A|-777----------555----------333--------555----------------|
E|---------------------------------------------------------| x3


Pre-Chorus:  "Hold your head up, and face the day..."
G|--------------------------------------------------------|
D|--------------------------------------------------------|
A|-55-------------------------------5-55------------------|
E|----3-5555555555555555-x2--3-33------5-5555555-3333333--| x1


Pre-Chorus 2:  "Without my hand to hold..."
G|-------------------------------|
D|-------------------------------|
A|-5-55-5--------5-55-5----------|
E|--------5-55-5--------5-55-5---| x1


Chorus:  "Popsicle love, and pie crust promises..."
G|----------------------------------|
D|----------------------------------|
A|----------------------------------|
E|-000000000000000-55555555555555---| x2

Chorus 2:  "This is all I ever wanted..."
G|---------------------|
D|---------------------|
A|---------------------|
E|-7~-5~-00000000-5~---| x1


Break
G|---------------------------------------------------------|
D|-----7/9-7-6------7/9-7-6------44-66------66-77----------|
A|-777----------555----------333--------555----------------|
E|---------------------------------------------------------| x1


Verse 2:  "I threw up today, I kinda sorta prayed..."
G|---------------------------------------------------------|
D|-----7/9-7-6------7/9-7-6------44-66------66-77----------|
A|-777----------555----------333--------555----------------|
E|---------------------------------------------------------| x2


Pre-Chorus:  "Hold your head up, and face the day..."
Pre-Chorus x1

Pre-Chorus 2:  "Without my hand to hold..."
Pre-Chorus 2 x1

Chorus 2:  "This is all I ever wanted..."
Chorus 2 x1

Bridge:  "And, this is much more than I needed..."
G|--------------------------------------------------------------|
D|--------------------------------------------------------------|
A|--------------------------------------------------------------|
E|--5555555555555555-000000000000000-x2-0000000000000-5~-7~-5~--|

"But, it's mine..."
G|----------------------------------|
D|----------------------------------|
A|----------------------------------|
E|-00000000000000-5555555555555555--|


Outro:  "Popsicle love, and pie crust promises..."
G|-----------------------------------|
D|-----------------------------------|
A|-----------------------------------|
E|-00000000000000-5555555555555555---| x6


Lyrics:

Verse 1:
I woke up today, that was my frist mistake
I would have been better off in the middle of a dream I was havin' 'bout a brighter day
Yesterday, I gave my heart away
By the middle of the day, you could search for "Sucker" and find it now, on E-Bay

Pre-Chorus:
Hold your head up, and face the day
Seems like everybody's got a way to say I'm doin' okay
I'm okay, as long as you're happy without me

Pre-Chorus 2:
Without my hand to hold
Without my jacket to keep me warm when you're cold
Oh, yeah, you're cold

Chorus:
Popsicle love, and pie crust promises
Ice cream kisses, that I'm really gonna miss you
Smithsonian, peppermint, sugar coated accident
Empty like a cavity, and now we're just history

Chorus 2:
And, this is all I ever wanted (I can take the heart break)
Can I get somethin' for my love sick stomach ache?

Verse 2:
I threw up today, I kinda sorta prayed
To go back in time, re-write these rhymes, but I'll settle for a bloody mary
What's that, you say?  You say you're not so okay
Lookin' down from the top of the thirty-first drop, that's exactly what you wanted

Pre-Chorus:
Hold your head up, and face the day
Seems like yesterday, you got your way
But, I ain't doin' okay, what's that, you say?
You say you're not really happy without me

Pre-Chorus 2:
Without my hand to hold
Without my jacket to keep me warm when you're cold

Chorus 2:
This is all I ever wanted (I can take the heart break)
Can I get somethin' for my love sick stomach ache?

Bridge:
And, this is much more than I needed (Can I get some Ginger Ale?)
I feel the agony of the defeated (Tell her she can go to hell)
And, if you really wanna make me feel better
Just don't let her take the sweater I was wearin' when I met her
'Cause I know she's gonna say it was hers, but it's mine
That shit is mine..

Outro:
Popsicle love, and pie crust promises
Ice cream kisses that I'm really gonna miss her
Smithsonian, peppermint, sugar coated accident
Empty like a cavity, and now we're just history
And, popsicle love, and pie crust promises
Ice cream kisses that I'm really gonna miss her
Smithsonian, peppermint, sugar coated accident
Empty like a cavity, and now we're just history
And, popsicle love, and pie crust promises (And, this is much more than I needed)
Ice cream kisses that I'm really gonna miss her
Smithsonian, peppermint, sugar coated accident (I feel the agony of the defeated)
Empty like a cavity, and now we're just history
And, popsicle love...

            
            
Suggest correction
Creating personal tab
Creating personal tab
You can edit any tab online and save it as your Personal.

You can edit, replace or remove any tab part or add personal notes – all changes will be seen only by you.

Personal tabs can be accessed anytime from any device, even offline.
Learn more »
Give kudos to tab author, rate the tab!
1 2 3 4 5
comments
print report bad tab
guest
You may want to rate the tab now too:
select rating
Wanna post a correction for this tab? Suggest correction