Oops, an error
Loading. Please wait.

Hotel Acoustic tab

by Boy
916 views 9 this week
no commentswrite comment
1 2 3 4 5
1 last vote to show rating
add to favorites
×
Save as Personal and add changes to this tab that will be seen only by you. Learn more ›
×
You can save this tab as Personal to edit and correct it or add notes. All changes will be seen only by you. Learn more »
launch autoscroll
font size
0
reset
how to read this tab
guitar tuner
edit
Autoscroll
slow
fast
+/-
esc
set tempo
stop
[Intro:]

e|-------------------------------------------|
B|---0-----0---0---0----0-----0---0---0------|
G|---0-----0---0---0----0-----0---0---0------|
D|-----5---------5--------5---------5--------|
A|-7---------7--------7---------7------------|
E|-------------------------------------------|
 
[Strophe:]

   Em                                     E                 Cmaj7
e|-----------------------------------------------------------------------------|
B|---0-----0---0---0----0-----0---0---0----0-----0---0---0----0-----0---0---0--|
G|---0-----0---0---0----0-----0---0---0----0-----0---0---0----0-----0---0---0--|
D|-----5---------5--------5---------5--------4---------4--------2---------2----|
A|-7---------7--------7---------7--------5---------5--------3---------3--------|
E|-----------------------------------------------------------------------------|
     514, no morning's broken             the minibar is always open
     
e|-----------------------------------------------------------------------------|
B|---0-----0---0---0----0-----0---0---0----0-----0---0---0----0-----0---0---0--|
G|---0-----0---0---0----0-----0---0---0----0-----0---0---0----0-----0---0---0--|
D|-----5---------5--------5---------5--------4---------4--------2---------2----|
A|-7---------7--------7---------7--------5---------5--------0---------0--------|
E|-----------------------------------------------------------------------------|
 she lays her head and waits her dreams  these sheets are clean  these sheets are clean
                                                           
e|-----------------------------------------------------------------------------|
B|---0-----0---0---0----0-----0---0---0----0-----0---0---0----0-----0---0---0--|
G|---0-----0---0---0----0-----0---0---0----0-----0---0---0----0-----0---0---0--|
D|-----5---------5--------5---------5--------4---------4--------2---------2----|
A|-7---------7--------7---------7--------5---------5--------3---------3--------|
E|-----------------------------------------------------------------------------|
  the TV's flickering red and blue       a voice suggests what she could do

e|-----------------------------------------------------------------------------|
B|---0-----0---0---0----0-----0---0---0----0-----0---0---0----0-----0---0---0--|
G|---0-----0---0---0----0-----0---0---0----0-----0---0---0----0-----0---0---0--|
D|-----5---------5--------5---------5--------4---------4--------2---------2----|
A|-7---------7--------7---------7--------5---------5--------0---------0--------|
E|-----------------------------------------------------------------------------|
   against the signs of getting old      she grabs the remote control

[Refrain:]

e|-----------------------------------------------------------------------------|
B|---0-----0-----0-----0-----0-----0-----0-----0-----0-----0-----0-----0----0--|
G|---0-----0-----0-----0-----0-----0-----0-----0-----0-----0-----0-----0----0--|
D|-----------------------------------------------------4------------4----------|
A|-----2------------2-----------2----------2------5-----------5----------5-----|
E|-3----------3-----------3-----------3----------------------------------------|
and she tries to tell the nights apart by the state of the heart and the shape of the moon

e|-----------------------------------------------------------------------------|
B|-----0----0-----0------0-----0----0-----0----0-----0----0----0------0-----0--|
G|-----0----0-----0------0-----0----0-----0----0-----0----0----0------0-----0--|
D|4-----------4----------------------------------------------------------2-----|
A|-------5------------------2---------2----------2----------2------3-----------|
E|--------------------0----------0----------0----------0-----------------------|
             a hotel room,  is a hotel room,     is a  hotel   room
e|-----------------------------------------------------------------------------|
B|----0-----0-----0-----0-----0-----0----0----0-----0-----0-----0-----0--------|
G|----0-----0-----0-----0-----0-----0----0----0-----0-----0-----0-----0--------|
D|------2-----------2-----------2----------4----------4-----------4------------|
A|-3-----------3-----------3-----------5---------5----------5------------------|
E|-----------------------------------------------------------------------------|

e|-----------------------------------------------------------------------------|
B|---0-----0-----0-----0-----0-----0----0--0-----------------------------------|
G|---0-----0-----0-----0-----0-----0----0----2--0------------------------------|
D|-----4-----------2------------2----------------------------------------------|
A|-5----------3-----------3----------------------------------------------------|
E|-----------------------------------------------------------------------------|

[Strophe:]

e|-----------------------------------------------------------------------------|
B|----0-------------------0-----------0---------------------------0------------|
G|----0-------------------0-----------0---------------------------0------------|
D|------5--------------------5-----------4---------------------------2---------|
A|-7-------------------7-----------5---------------------------3---------------|
E|-----------------------------------------------------------------------------|
  362, do not disturb            if no one knows, no one gets hurt
e|-----------------------------------------------------------------------------|
B|---0-----0-----------------0-----0------------0-----0----------------0----0--|
G|---0-----0-----------------0-----0------------0-----0----------------0----0--|
D|-----5------------------------5-----------------2-----------------------2----|
A|-7----------7-----------7-----------7------3-----------3----------0----------|
E|-----------------------------------------------------------------------------|
    he turns off his mobile phone          he's never been this far from home
e|-----------------------------------------------------------------------------|
B|----0-----0------0-----0----0---0-----0-----0----0---0-----------------------|
G|----0-----0------0-----0----0---0-----0-----0----0---0-----------------------|
D|------2------------5----------5---------5----------5-------------------------|
A|-0------------7----------7---------7----------7------------------------------|
E|-----------------------------------------------------------------------------|
                a stanger's skin and unknown scents       

e|-----------------------------------------------------------------------------|
B|---0-----0----0---0-----0-----0----0---0-------------------------------------|
G|---0-----0----0---0-----0-----0----0---0-------------------------------------|
D|-----4----------4---------2----------2---------------------------------------|
A|-5---------5----------3---------3--------------------------------------------|
E|-----------------------------------------------------------------------------|
 he wonders where his conscience went
e|-----------------------------------------------------------------------------|
B|---0-----0---0---0----0-----0---0---0----0-----0---0---0----0-----0---0---0--|
G|---0-----0---0---0----0-----0---0---0----0-----0---0---0----0-----0---0---0--|
D|-----5---------5--------5---------5--------4---------4--------2---------2----|
A|-7---------7--------7---------7--------5---------5--------0---------0--------|
E|-----------------------------------------------------------------------------|
  the stranger smiles and blows a kiss   wake up call, quarter to six

[Refrain]

e|-----------------------------------------------------------------------------|
B|---0-----0-----0-----0-----0-----0-----0-----0-----0-----0-----0-----0----0--|
G|---0-----0-----0-----0-----0-----0-----0-----0-----0-----0-----0-----0----0--|
D|-----------------------------------------------------4------------4----------|
A|-----2------------2-----------2----------2------5-----------5----------5-----|
E|-3----------3-----------3-----------3----------------------------------------|
1. and she tries to tell the nights apart  by the state of the heart and the shape of the moon
2. yeah they try to tell the nights apart
e|-----------------------------------------------------------------------------|
B|-----0----0-----0------0-----0----0-----0----0-----0----0----0------0-----0--|
G|-----0----0-----0------0-----0----0-----0----0-----0----0----0------0-----0--|
D|4-----------4----------------------------------------------------------2-----|
A|-------5------------------2---------2----------2----------2------3-----------|
E|--------------------0----------0----------0----------0-----------------------|
             a hotel room,  is a hotel room,     is a  hotel   room

e|-----------------------------------|    
B|----0-----0-----0-----0-----0------|    
G|----0-----0-----0-----0-----0------|    
D|------2-----------2-----------2----|    (2x) 
A|-3-----------3-----------3---------|   
E|-----------------------------------| 
   Cmaj7                                Em                       E
e|--0------------------------------------0-----------------------0-------------|
B|--0------------------------------------0-----------------------0-------------|
G|--0------------------------------------0-----------------------0-------------|
D|--2------------------------------------5-----------------------4-------------|
A|--3------------------------------------7-----------------------5-------------|
E|--0------------------------------------0-----------------------0-------------|
   hey lad in the corridors              short stories on every floor
   checking in and checking out          nothing to write home about   
  it's just a stop along the way         just a temporary place
for neighbour's neighbours in the dark   wall to wall and worlds apart


(Zwischenspiel 2x Cmaj7, Em, E im gleichen Zupfmuster wie oben)

Cmaj7 
101, our lucky number
Em                         E
windows open, wind of summer
         Cmaj7
my hotel room, is a hotel room
             Em    E
is a hotel room
       Cmaj7   
and I hang my dress up, turn the lights out
       Em                       E
it's probably too late to call now
         Cmaj7
a hotel room, is a hotel room
             Em    E
is a hotel room

            
            
Suggest correction
Creating personal tab
Creating personal tab
You can edit any tab online and save it as your Personal.

You can edit, replace or remove any tab part or add personal notes – all changes will be seen only by you.

Personal tabs can be accessed anytime from any device, even offline.
Learn more »
Give kudos to tab author, rate the tab!
1 2 3 4 5
comments
print report bad tab
guest
You may want to rate the tab now too:
select rating
Wanna post a correction for this tab? Suggest correction