Oops, an error
Loading. Please wait.

Ur Phone chords

994 views 93 this week
no commentswrite comment
1 2 3 4 5
x 5
add to favorites
×
Save as Personal and add changes to this tab that will be seen only by you. Learn more ›
×
You can save this tab as Personal to edit and correct it or add notes. All changes will be seen only by you. Learn more »
launch autoscroll
font size
0
reset
transpose
0
reset
display chords
guitar tuner
edit
Autoscroll
slow
fast
+/-
esc
set tempo
stop
Strumming
There is no strumming pattern for this song yet. and get +5 IQ
[Intro]
e|-11-11-10-10-8-------------------------10-10---------10-------10-|
B|----------------11-11-10--10-------------------------------------|
G|------------------------------10-10/12-------12-12------12-12----|
D|-----------------------------------------------------------------|
A|-----------------------------------------------------------------|
E|-----------------------------------------------------------------|

e|-11-11-10-10-8-------------------------10-10-----13-13-------13--|
B|----------------11-11-10--10-------------------------------------|
G|------------------------------10-10/12-------12--------12-12-----|
D|-----------------------------------------------------------------|
A|-----------------------------------------------------------------|
E|-----------------------------------------------------------------|

(x2)

[Verse 1]
Bb                        Eb
Do you want to meet after class?
         Eb                    Bb
'Cause I really want to
                               Eb
I'll be waiting for you on the field
         Eb                    Bb
'Cause I really want to
                          Bb
'Cause I really want to
              Eb
Be with you
                      Eb
But I'd never had the courage
              Bb
To ask you to be with me
                      Eb
But trust me
          Eb
I'm gonna step up my game

[Chorus 1]
Bb
I was going to call you
         Eb
Going to call you
                        Bb
You didn't pick up your phone
                        Bb
Going to call you
                   Eb
Going to call you
                        Bb
You didn't pick up your phone

[Verse 2]
       Bb                  Eb
Do you want to head out of here
      Eb
Never really dared to
Bb
Way too shy
Bb
And we're too young
Eb
It's too soon to be playing this game

[Chorus 2]
Bb
I was going to call you
         Eb
Going to call you
                        Bb
You didn't pick up your phone
                        Bb
Going to call you
                   Eb
Going to call you
                        Dm
You didn't pick up your phone

[Bridge]
Dm            Eb
Dm            Eb

[Chorus 3]
Bb
I was going to call you
         Eb
Going to call you
                        Bb
You didn't pick up your phone
                        Bb
Going to call you
                   Eb
Going to call you
                        Bb
You never pick up your phone

[Outro]
Bb            Eb
Bb            Eb



************************************

| /  Slide up
| 'Cause I really want to 
| I was going to call you 
| I'll be waiting for you on the field 
| I'm gonna step up my game 
| It's too soon to be playing this game 
| Never really dared to 
| To ask you to be with me 
| Way too shy 
| You didn't pick up your phone 
| You never pick up your phone 
| e with you 
| nd we're too young 
| o you want to head out of here 
| o you want to meet after class? 
| oing to call you 
| ut I'd never had the courage 
| ut trust me 

************************************

            
            
Suggest correction
Creating personal tab
Creating personal tab
You can edit any tab online and save it as your Personal.

You can edit, replace or remove any tab part or add personal notes – all changes will be seen only by you.

Personal tabs can be accessed anytime from any device, even offline.
Learn more »
comments
print report bad tab
guest
You may want to rate the tab now too:
select rating
Wanna post a correction for this tab? Suggest correction