Oops, an error
Loading. Please wait.

Pretty Flowers bass

22 views 1 this week
no commentswrite comment
1 2 3 4 5
3 more votes to show rating
add to favorites
×
Save as Personal and add changes to this tab that will be seen only by you. Learn more ›
×
You can save this tab as Personal to edit and correct it or add notes. All changes will be seen only by you. Learn more »
launch autoscroll
font size
0
reset
guitar tuner
edit
Autoscroll
slow
fast
+/-
esc
set tempo
stop
Author
Difficulty
Tabbed by: 6METAL6BASSIST6
E-mail: petergriffinav@gmail.com

Tuning: 1/4 step up.

0:04

G|--------------------------------------------------------------------------------|
D|--------------------------------------------------------------------------------|
A|8-------------------------------8-------------------------------8---------------|
E|--------------------------------------------------------------------------------|

G|----------------------------------------------------------------|
D|8-------8-------8-------8-----/-10------10------10------10------|
A|--------------8-------------8-----------------10------------10--|
E|----------------------------------------------------------------|

G|--------------------------------------------------------------------------------|
D|--------------------------------------------------------------------------------|
A|8-------------------------------8-------------------------------8---------------|
E|--------------------------------------------------------------------------------|

G|----------------------------------------------------------------|
D|8-------8-------8-------8-----/-10------10------10------10------|
A|--------------8-------------8-----------------10------------10--|
E|----------------------------------------------------------------|

G|--------------------------------------------|
D|--------------------------------------------|
A|--------------------------------------------|
E|8-------------------------------------------|

0:24

G|----------------------------------------------------------------|
D|----------------------------------------------------------------| x2
A|3-------3-------3-------3-------3-------3-------3-------3-------|
E|----------------------------------------------------------------|

G|----------------------------------------------------------------|
D|----------------------------------------------------------------|
A|3-------3-------3-------3-------3-------3-------3-------3---/---|
E|----------------------------------------------------------------|

G|--------------------------------------------7-------------------|
D|--------------------------------8-------8-------10--8---7-------|
A|8-------8-------8-------8-----------8---------------------------|
E|----------------------------------------------------------------|

0:40

G|--------------------------------------------------------------------------------|
D|--------------------------------------------------------------------------------|
A|8-------------------------------8-------------------------------8---------------|
E|--------------------------------------------------------------------------------|

G|----------------------------------------------------------------|
D|8-------8-------8-------8-----/-10------10------10------10------|
A|--------------8-------------8-----------------10------------10--|
E|----------------------------------------------------------------|

G|--------------------------------------------------------------------------------|
D|--------------------------------------------------------------------------------|
A|8-------------------------------8-------------------------------8---------------|
E|--------------------------------------------------------------------------------|

G|----------------------------------------------------------------|
D|8-------8-------8-------8-----/-10------10------10------10------|
A|--------------8-------------8-----------------10------------10--|
E|----------------------------------------------------------------|

G|--------------------------------------------|
D|--------------------------------------------|
A|--------------------------------------------|
E|8-------------------------------------------|

1:00

G|----------------------------------------------------------------|
D|----------------------------------------------------------------| x3
A|3-------3-------3-------3-------3-------3-------3-------3-------|
E|----------------------------------------------------------------|

G|--------------------------------------------7-------------------|
D|--------------------------------8-------8-------10--8---7-------|
A|8-------8-------8-------8-----------8---------------------------|
E|----------------------------------------------------------------|

G|----------------------------------------------------------------|
D|----------------------------------------------------------------|
A|8-------8-------8-------8-------8-------8-------8-------8-------|
E|----------------------------------------------------------------|

G|------------------------------------------------|
D|------------------------------------------------|
A|8-----------------------------------------------|
E|------------------------------------------------|

1:24

G|------------------------------------------------------------------------------------------------|
D|------------------------------------------------------------------------------------------------|
A|5-----------------------5-----------------------5-----------------------5-----------3-----------|
E|--------------------5-----------------------5-----------------------5---------------------------|

G|------------------------------------------------------------------------------------------------|
D|------------------------------------------------------------------------------------------------|
A|1-----------------------1-----------------------1-----------------------1-----------0-----------|
E|--------------------1-----------------------1-----------------------1---------------------------|

1:38

G|------------------------------------------------------------------------------------------------|
D|5-----------------------5-----------------------5-----------------------5---------------7---8---|
A|--------------------5-----------------------5-----------------------5---------------------------|
E|------------------------------------------------------------------------------------------------|

G|----------------------------------------------------7-------------------------------------------|
D|10----------------------10----------------------10------10--8---10--8---7---8---7---5---7-------|
A|--------------------10----------------------10--------------------------------------------------|
E|------------------------------------------------------------------------------------------------|

G|------------------------------------------------|
D|----------------5---7---8---------------7---5---|
A|8-----------------------------------------------|
E|------------------------------------------------|

1:54

G|--------------------------------------------------------------------------------|
D|--------------------------------------------------------------------------------|
A|8-------------------------------8-------------------------------8---------------|
E|--------------------------------------------------------------------------------|

G|----------------------------------------------------------------|
D|8-------8-------8-------8-----/-10------10------10------10------|
A|--------------8-------------8-----------------10------------10--|
E|----------------------------------------------------------------|

G|--------------------------------------------------------------------------------|
D|--------------------------------------------------------------------------------|
A|8-------------------------------8-------------------------------8---------------|
E|--------------------------------------------------------------------------------|

G|----------------------------------------------------------------|
D|8-------8-------8-------8-----/-10------10------10------10------|
A|--------------8-------------8-----------------10------------10--|
E|----------------------------------------------------------------|

G|--------------------------------------------|
D|--------------------------------------------|
A|--------------------------------------------|
E|8-------------------------------------------|

2:14

G|----------------------------------------------------------------|
D|----------------------------------------------------------------| x2
A|3-------3-------3-------3-------3-------3-------3-------3-------|
E|----------------------------------------------------------------|

G|----------------------------------------------------------------|
D|----------------------------------------------------------------|
A|3-------3-------3-------3-------3-------3-------3-------3---/---|
E|----------------------------------------------------------------|

G|--------------------------------------------7-------------------|
D|--------------------------------8-------8-------10--8---7-------|
A|8-------8-------8-------8-----------8---------------------------|
E|----------------------------------------------------------------|

G|----------------------------------------------------------------|
D|----------------------------------------------------------------|
A|8-------8-------8-------8-------8-------8-------8-------8-------|
E|----------------------------------------------------------------|

G|------------------------------------------------|
D|------------------------------------------------|
A|8-----------------------------------------------|
E|------------------------------------------------|

2:38

G|------------------------------------------------------------------------------------------------|
D|------------------------------------------------------------------------------------------------|
A|5-----------------------5-----------------------5-----------------------5-----------3-----------|
E|--------------------5-----------------------5-----------------------5---------------------------|

G|------------------------------------------------------------------------------------------------|
D|------------------------------------------------------------------------------------------------|
A|1-----------------------1-----------------------1-----------------------1-----------0-----------|
E|--------------------1-----------------------1-----------------------1---------------------------|

G|----------------------------------------------------|
D|5-----------------------5-----------------------5---| fades out here.
A|--------------------5-----------------------5-------|
E|----------------------------------------------------|

            
            
Suggest correction
Creating personal tab
Creating personal tab
You can edit any tab online and save it as your Personal.

You can edit, replace or remove any tab part or add personal notes – all changes will be seen only by you.

Personal tabs can be accessed anytime from any device, even offline.
Learn more »
Give kudos to tab author, rate the tab!
1 2 3 4 5
comments
print report bad tab
guest
You may want to rate the tab now too:
select rating
Wanna post a correction for this tab? Suggest correction