Oops, an error
Loading. Please wait.

Fast Car tab

version 4
version 4

Whole song

4,402 views 33 this week
1 commentread comment
1 2 3 4 5
x 8
add to favorites
×
Save as Personal and add changes to this tab that will be seen only by you. Learn more ›
×
You can save this tab as Personal to edit and correct it or add notes. All changes will be seen only by you. Learn more »
launch autoscroll
font size
0
reset
how to read this tab
guitar tuner
edit
Autoscroll
slow
fast
+/-
esc
set tempo
stop
-------------------------------------------------------------------------------
                             Fast Car - Boyce Avenue
-------------------------------------------------------------------------------
Tabbed by: eliza
E-mail: 

Tuning:
CAPO 3

INTRO:
e|------------------|----------------|----------------|----------------|
B|--0h1-0-3---3-----|8-----7---7-----|0h1-0-3---3-----|8-----7---7-----|
G|--0---0-0-----0---|0-----0-----0---|0---0-0-----0---|0-----0-----0---|
D|------------------|------0---------|----------------|------0---------|
A|--3---------------|7---------------|3---------------|7---------------|
E|--------3---------|----------------|------3---------|----------------|

e|------------------|----------------|----------------|----------------|
B|--0h1-0-3---3-----|8--10-8-7--8--7-|0h1-0-3---3-----|8-----7---7-----|
G|--0---0-0-----0---|0---------------|0---0-0-----0---|0-----0-----0---|
D|------------------|--------0-------|----------------|------0---------|
A|--3---------------|7---------------|3---------------|7---------------|
E|--------3---------|----------------|------3---------|----------------|

VERSE PATTERN:
e|------------------|----------------|
B|--0h1-0-3---3-----|8-----7---7-----|
G|--0---0-0-----0---|0-----0-----0---|
D|------------------|------0---------|
A|--3---------------|7---------------|
E|--------3---------|----------------|

CHORUS:
 Cmaj7                          C               C
‘Cause I remember when we were driving, driving in your car
    G                Gadd9           G
The speed so fast it felt like I was drunk
Em                Em7            Em
  The city lights lay out before us
         Dsus4         D                 Dsus4
And your arm felt nice wrapped ‘round my shoulder
    C* Em*     D            Dsus2 D
And I    had a feeling that I belonged
    C* Em*     D               Dsus2  D   C*          D*
And I   had a feeling I could be someone, be someone, be someone


Chords used in the chorus:

C     x32010  (driving -- car)  
Cmaj7 x32000  (and I/be someone)
G     320003
Gadd9 300003
Em    022000  (city lights -- us)
Em7   020030  (and I...)
D     x00232
Dsus2 x00230
*(strum once)

************************************

| /   slide up
| \   slide down
| h   hammer-on
| p   pull-off
| ~   vibrato
| +   harmonic
| x   Mute note
| b   Bend
| pb  Pre-bend
| br  Bend release
| pbr Pre-bend release
| brb Bend release bend

************************************

HOPE YOU LIKE IT :) 

            
            
Suggest correction
Creating personal tab
Creating personal tab
You can edit any tab online and save it as your Personal.

You can edit, replace or remove any tab part or add personal notes – all changes will be seen only by you.

Personal tabs can be accessed anytime from any device, even offline.
Learn more »
comments
print report bad tab
1 comment total.
0 reply
amywhitmore 10 Feb 20, 2016 03:02 AM

its brilliant!!! :)

guest
You may want to rate the tab now too:
select rating
Wanna post a correction for this tab? Suggest correction