Oops, an error
Loading. Please wait.

Fast Car tab

version 5
version 5

Whole song

994 views 9 this week
1 commentread comment
1 2 3 4 5
1 last vote to show rating
add to favorites
×
Save as Personal and add changes to this tab that will be seen only by you. Learn more ›
×
You can save this tab as Personal to edit and correct it or add notes. All changes will be seen only by you. Learn more »
launch autoscroll
font size
0
reset
how to read this tab
guitar tuner
edit
Autoscroll
slow
fast
+/-
esc
set tempo
stop
About this tab version
I know there are many versions of Fast Car. However, there are only a few tabs of this song by Boyce Avenue. To me, most of those versions don't quite sound right. And there was not one that I could say was 'perfect'. I did up this tab, which to me, sounds correct. Was this info helpful? Yes No
-------------------------------------------------------------------------------
                             FAST CAR - Boyce Avenue
-------------------------------------------------------------------------------
Tabbed by: Squishidinks

Capo: 3rd fret

I know there are many versions of FAST CAR. However, there are only a few tabs of this song by Boyce Avenue. 
To me, most of those versions don't quite sound right. And there was not one that I could say was 'perfect'.
I did up this tab, which to me sounds correct

INTRO:
e|------------------------------|------------------------------|
B|--0h1-0---3-3----8-8----7-7---|--0h1-0---3-3----8-8----7-7---|
G|----------0-0----0-0----------|----------0-0----0-0----------|
D|------------------------------|------------------------------|
A|--3-------2-2----7-7----5-5---|--3-------2-2----7-7----5-5---|
E|------------------------------|------------------------------|

e|--------------------------------------|------------------------------|
B|--0h1-0---3-3----8--10--8----7--8--7--|--0h1-0---3-3----8-8----7-7---|
G|----------0-0----0-----------0--------|----------0-0----0-0----------|
D|--------------------------------------|------------------------------|
A|--3-------2-2----7-----------5--------|--3-------2-2----7-7----5-5---|
E|--------------------------------------|------------------------------|

This continues on throughout the rest of the song:
e|------------------------------|------------------------------|
B|--0h1-0---3-3----8-8----7-7---|--0h1-0---3-3----8-8----7-7---|
G|----------0-0----0-0----------|----------0-0----0-0----------|
D|------------------------------|------------------------------|
A|--3-------2-2----7-7----5-5---|--3-------2-2----7-7----5-5---|
E|------------------------------|------------------------------|

e|------------------------------|------------------------------|
B|--0h1-0---3-3----8-8----7-7---|--0h1-0---3-3----8-8----7-7---|
G|----------0-0----0-0----------|----------0-0----0-0----------|
D|------------------------------|------------------------------|
A|--3-------2-2----7-7----5-5---|--3-------2-2----7-7----5-5---|
E|------------------------------|------------------------------|

I like to add palm slaps and muted strums during the song  :)
************************************

| /   slide up
| \   slide down
| h   hammer-on
| p   pull-off
| ~   vibrato
| +   harmonic
| x   Mute note
| b   Bend
| pb  Pre-bend
| br  Bend release
| pbr Pre-bend release
| brb Bend release bend

************************************

            
            
Suggest correction
Creating personal tab
Creating personal tab
You can edit any tab online and save it as your Personal.

You can edit, replace or remove any tab part or add personal notes – all changes will be seen only by you.

Personal tabs can be accessed anytime from any device, even offline.
Learn more »
Give kudos to tab author, rate the tab!
1 2 3 4 5
comments
print report bad tab
1 comment total.
+1 reply
kprice_08 11 Jan 04, 2017 11:43 PM

great tab, so far the only one that caught the difference between how Chapman and Boyce play the song on the 7 & 5 notes instead of it being 7 on the second string and open on the third and fourth. Great Job!

guest
You may want to rate the tab now too:
select rating
Wanna post a correction for this tab? Suggest correction