Oops, an error
Loading. Please wait.

In Case You Didnt Know tab

3,025 views 135 this week
5 commentsread comments
1 2 3 4 5
x 10
add to favorites
×
Save as Personal and add changes to this tab that will be seen only by you. Learn more ›
×
You can save this tab as Personal to edit and correct it or add notes. All changes will be seen only by you. Learn more »
launch autoscroll
font size
0
reset
how to read this tab
guitar tuner
edit
Autoscroll
slow
fast
+/-
esc
set tempo
stop
About this tab version
Based off the youtube video. Was this info helpful? Yes No
[Intro]
             G           G   D          G   C              C
e|---------|--------------------------------0--------------0-----------------|
B|---------|--3------3---12--10---10----12--5----5----5s3--5----5----5s7-----|
G|-------0-|-----0-----0--------0----0---------0----0---------0----0---------|
D|----0h4--|----0-----0--------0----0---------0----0---------0----0----------|
A|---------|-------------10--9----------10--3--------------3-----------------|
E|---3-----|--3--------------------------------------------------------------|

[Verse]
             I...
             G           G   D         G   C              C
e|-----------------------------------------0--------------0-----------------|
B|-----------3------3---12--10---10----12--5----5----5s3--5----5----5s7-----|
G|--------------0-----0--------0----0---------0----0---------0----0---------|
D|-------------0-----0--------0----0---------0----0---------0----0----------|
A|----------------------10--9----------10--3--------------3-----------------|
E|-----------3--------------------------------------------------------------|

             Just...
              G          G   D          G   C              C
e|------------------------------------------0--------------0-----------------|
B|------------3------3---12--10---10----12--5----5----5s7--5----5----3-------|
G|---------------0-----0--------0----0---------0----0---------0----0---------|
D|--------------0-----0--------0----0---------0----0---------0----0----------|
A|-----------------------10--9----------10--3--------------3---------2-------|
E|------------3--------------------------------------------------------------|

                   Baby...
              Am7            C               Am7            D
e|---------------------------------------------------------------------------|
B|------------1----1---------1----1-----1h3--1----1----1p0--3---3------------|
G|---------------0----0---------0-----0---------0----0---------2-------------|
D|--------------2----2--2p0----2-----2---------2----2-------0-0--------------|
A|------------0--------------3---------------0-------------------------------|
E|---------------------------------------------------------------------------|

[Chorus]
                  G
In case you didn't know
                D
Baby I'm crazy 'bout you
               Em            D
And I would be lying if I said
              C
That I could live this life without you
 D         G        D
Even though I don't tell you all the time
  Em               D                  C
You had my heart a long, long time ago
D 
In case you didn't know

            G                   G
e|---------------------------------------------------------------------------|
B|----------0h3---3---3---1p0---0h3---3---3---1p0----------------------------|
G|------------------0-------------------0------------------------------------|
D|--------------0-------0-----------0-------0--------------------------------|
A|---------------------------------------------------------------------------|
E|----------3-------------------3--------------------------------------------|

[Verse]
             The way...
             G           G   D         G   C              C
e|-----------------------------------------0--------------0-----------------|
B|-----------3------3---12--10---10----12--5----5----5s3--5----5----5s7-----|
G|--------------0-----0--------0----0---------0----0---------0----0---------|
D|-------------0-----0--------0----0---------0----0---------0----0----------|
A|----------------------10--9----------10--3--------------3-----------------|
E|-----------3--------------------------------------------------------------|

             There was...
              G          G   D          G   C              C
e|------------------------------------------0--------------0-----------------|
B|------------3------3---12--10---10----12--5----5----5s7--5----5----3-------|
G|---------------0-----0--------0----0---------0----0---------0----0---------|
D|--------------0-----0--------0----0---------0----0---------0----0----------|
A|-----------------------10--9----------10--3--------------3---------2-------|
E|------------3--------------------------------------------------------------|

                   One of...
              Am7            C               Am7            D
e|---------------------------------------------------------------------------|
B|------------1----1----1p0--1----1-----1h3--1----1----1p0--3---3------------|
G|---------------0----0---------0-----0---------0----0---------2-------------|
D|--------------2----2---------2-----2---------2----2-------0-0--------------|
A|------------0--------------3---------------0-------------------------------|
E|---------------------------------------------------------------------------|

[Chorus]
                  G
In case you didn't know
                D
Baby I'm crazy 'bout you
               Em            D
And I would be lying if I said
              C
That I could live this life without you
 D         G        D
Even though I don't tell you all the time
  Em               D                  C
You had my heart a long, long time ago
D 
In case you didn't know

[Bridge]
Em                 C
You've got all of me
         G
I belong to you
               D
Yeah you're my everything

[Chorus]              
            G
In case you didn't know
                D
Baby I'm crazy 'bout you
               Em            D
And I would be lying if I said
              C
That I could live this life without you
D          G        D
Even though I don't tell you all the time
  Em               D                  C
You had my heart a long, long time ago
        Em               D                 C
Yeah, you had my heart a long, long time ago
                     G   
Mmm, in case you didn't know
   D        C                      
No, no in case you didn't know

[Outro]

    G          G   D/F#       G   Em      D     C
e|--------------------------------------------------------------------|
B|--3------3---12--10---10----12--8----8--7--7--5--5--1p0=----===-----|
G|-----0-----0--------0----0---------0------0-----0---==-0--2s4-------|
D|----0-----0--------0----0---------0------0-----0--------0=----------|
A|-------------10--9----------10--7-------5-----3-----3---------------|
E|--3-----------------------------------------------------------------|      
                        In.....know      oh     oh

End with G


************************************

| h  Hammer-on
| p  Pull-off
 

************************************

            
            
Suggest correction
Creating personal tab
Creating personal tab
You can edit any tab online and save it as your Personal.

You can edit, replace or remove any tab part or add personal notes – all changes will be seen only by you.

Personal tabs can be accessed anytime from any device, even offline.
Learn more »
comments
print report bad tab
5 comments total. Showing first comments.
0 reply
GH3Phenom 10 Jul 06, 2017 06:32 PM

hey man this is great any chance you could do attention their cover? im pretty sure its drop A tuning in the Key of C just cant figure it out yet.

0 reply
wm.halma 10 Aug 24, 2017 08:55 AM

what chord does he strum at the very end? excellent tab. thanx.

0 reply
wm.halma 10 Aug 24, 2017 09:10 AM

excellent tab and professionally tabbed. Thanx.

guest
You may want to rate the tab now too:
select rating
Wanna post a correction for this tab? Suggest correction