Oops, an error
Loading. Please wait.

Wherever You Will Go tab

71,505 views 27 this week
3 commentsread comments
1 2 3 4 5
x 32
add to favorites
×
Save as Personal and add changes to this tab that will be seen only by you. Learn more ›
×
You can save this tab as Personal to edit and correct it or add notes. All changes will be seen only by you. Learn more »
launch autoscroll
font size
0
reset
how to read this tab
guitar tuner
edit
Autoscroll
slow
fast
+/-
esc
set tempo
stop
This is my first ever tab, hope you like it.(let me know if you find any mistakes)
Tabbed by Blake
Wherever You Will Go(Boyce Avenue cover)
capo 2nd fret, standard tuning.


[Intro]

e|----------------|-----------------|----------------|-----------------|
B|-----------1----|-----------1-----|-----------1----|-----1-----1--1--|
G|-----0---0---0--|-----0---0---0---|-----0---0---0--|-------0---0--0--|
D|---2---2-------2|---0---0-------0-|---2---2-------2|---0-------------|
A|-3--------------|-2---------------|-0--------------|-----------------|
E|----------------|-----------------|----------------|-1--------1--3---|


[Verse 1]

e|----------------|-----------------|----------------|-----------------|
B|-----------1----|-----------1-----|-----------1----|-----1-----1--1--|
G|-----0---0---0--|-----0---0---0---|-----0---0---0--|-------0---0--0--|
D|---2---2-------2|---0---0-------0-|---2---2-------2|---0-------------|
A|-3--------------|-2---------------|-0--------------|-----------------|
E|----------------|-----------------|----------------|-1--------1--3---|(x3)


[Pre-Chorus]

e|----------------|-----------------|----------------|
B|-----------1----|-----------1-----|-----------1----|
G|-----0---0---0--|-----0---0---0---|-----0---0---0--|
D|---2---2-------2|---0---0-------0-|---2---2-------2|
A|-3--------------|-2---------------|-0--------------|
E|----------------|-----------------|----------------|

e|-----------------|
B|-----------------|
G|-----------------|  (slight palm mute)
G|-3-3-3-3-3-3-3-3-|
A|-3-3-3-3-3-3-3-3-|
E|-1-1-1-1-1-1-1-1-|


[Chorus]

e|--0---0-----0---|--0---0-----0---|--0---0-----0---|--0---0---0--|
B|--1---0-----1---|--1---0-----1---|--1---0-----1---|--1---1---1--|
G|--0---0-----0---|--0---0-----0---|--2---2-----2---|--2---2---2--|
G|--2---2-----2---|--0---0-----0---|--2---2-----2---|--3---3---3--|
A|--3---3-----3---|--2---2-----2---|--0---0-----0---|--3---3---3--|
E|--x---x-----x---|--3---3-----3---|--x---x-----x---|--x---x---x--|(x2)


[Verse 2]

e|----------------|-----------------|----------------|-----------------|
B|-----------1----|-----------1-----|-----------1----|-----1-----1--1--|
G|-----0---0---0--|-----0---0---0---|-----0---0---0--|-------0---0--0--|
D|---2---2-------2|---0---0-------0-|---2---2-------2|---0-------------|
A|-3--------------|-2---------------|-0--------------|-----------------|
E|----------------|-----------------|----------------|-1--------1--3---|(x3)


[Pre-Chorus]

e|----------------|-----------------|----------------|---x---|
B|-----------1----|-----------1-----|-----------1----|---x---|
G|-----0---0---0--|-----0---0---0---|-----0---0---0--|---x---|
D|---2---2-------2|---0---0-------0-|---2---2-------2|---x---|
A|-3--------------|-2---------------|-0--------------|---x---|
E|----------------|-----------------|----------------|---x---|


[Chorus]

e|--0---0-----0---|--0---0-----0---|--0---0-----0---|--0---0---0--|
B|--1---0-----1---|--1---0-----1---|--1---0-----1---|--1---1---1--|
G|--0---0-----0---|--0---0-----0---|--2---2-----2---|--2---2---2--|
D|--2---2-----2---|--0---0-----0---|--2---2-----2---|--3---3---3--|
A|--3---3-----3---|--2---2-----2---|--0---0-----0---|--3---3---3--|
E|--x---x-----x---|--3---3-----3---|--x---x-----x---|--x---x---x--|(x2)


[Bridge]

e|--0---0-----0---|--0---0-----0---|--0---0-----0---|--0---0---0--|
B|--1---1-----1---|--1---1-----1---|--1---0-----1---|--0---0---0--|
G|--2---2-----2---|--2---2-----2---|--0---0-----0---|--0---0---0--|
D|--2---2-----2---|--3---3-----3---|--0---0-----0---|--2---2---2--|
A|--0---0-----0---|--3---3-----3---|--2---2-----2---|--2---2---2--|
E|--x---x-----x---|--x---x-----x---|--3---3-----3---|--x---x---x--|

e|--0---0-----0---|--0---0-----0---|--0---0-----0---|------------|
B|--1---1-----1---|--1---1-----1---|--1---0-----1---|------------|
G|--2---2-----2---|--2---2-----2---|--0---0-----0---|------------|
D|--2---2-----2---|--3---3-----3---|--0---0-----0---|--2-2-2-2-2-|(palm
A|--0---0-----0---|--3---3-----3---|--2---2-----2---|--2-2-2-2-2-|   mute)
E|--x---x-----x---|--x---x-----x---|--3---3-----3---|--0-0-0-0-0-|


[Verse 3]

e|----------------|-----------------|----------------|-----------------|
B|-----------1----|-----------1-----|-----------1----|-----1-----1--1--|
G|-----0---0---0--|-----0---0---0---|-----0---0---0--|-------0---0--0--|
D|---2---2-------2|---0---0-------0-|---2---2-------2|---0-------------|
A|-3--------------|-2---------------|-0--------------|-----------------|
E|----------------|-----------------|----------------|-1--------1--3---|


[Pre-Chorus]

e|----------------|-----------------|----------------|
B|-----------1----|-----------1-----|-----------1----|
G|-----0---0---0--|-----0---0---0---|-----0---0---0--|
D|---2---2-------2|---0---0-------0-|---2---2-------2|
A|-3--------------|-2---------------|-0--------------|
E|----------------|-----------------|----------------|

e|-----------------|
B|-----------------|
G|-----------------|  (slight palm mute)
G|-3-3-3-3-3-3-3-3-|
A|-3-3-3-3-3-3-3-3-|
E|-1-1-1-1-1-1-1-1-|


[Chorus]

e|--0---0-----0---|--0---0-----0---|--0---0-----0---|--0---0---0--|
B|--1---0-----1---|--1---0-----1---|--1---0-----1---|--1---1---1--|
G|--0---0-----0---|--0---0-----0---|--2---2-----2---|--2---2---2--|
D|--2---2-----2---|--0---0-----0---|--2---2-----2---|--3---3---3--|
A|--3---3-----3---|--2---2-----2---|--0---0-----0---|--3---3---3--|
E|--x---x-----x---|--3---3-----3---|--x---x-----x---|--x---x---x--|(x5)

e|--0---0-----0---|--0---0-----0---|--0---0-----0---|
B|--1---0-----1---|--1---0-----1---|--1---0-----1---|
G|--0---0-----0---|--0---0-----0---|--2---2-----2---|
D|--2---2-----2---|--0---0-----0---|--2---2-----2---|
A|--3---3-----3---|--2---2-----2---|--0---0-----0---|
E|--x---x-----x---|--3---3-----3---|--x---x-----x---|


[Outro]

e|--0----0-----0-----|
B|--1----1-----1-----|
G|--2----2-----0-----|(strum hard down)
D|--3----3-----3-----|
A|--3----3-----3-----|
E|--x----x-----x-----|



************************************

| x  Dead note

************************************

            
            
Suggest correction
Creating personal tab
Creating personal tab
You can edit any tab online and save it as your Personal.

You can edit, replace or remove any tab part or add personal notes – all changes will be seen only by you.

Personal tabs can be accessed anytime from any device, even offline.
Learn more »
comments
print report bad tab
3 comments total.
0 reply
izidor888 10 Nov 01, 2012 03:27 AM

nice work!
can you write down the strumming pattern? thanks

0 reply
daku.gamer.98 10 Mar 05, 2015 08:13 PM

two half downstrokes and one full downstroke. This reply it's two years 4 months late but anyone else could use some advice as well :b

0 reply
dark_knight777 10 Mar 14, 2013 04:17 AM

nice!
i love it

guest
You may want to rate the tab now too:
select rating
Wanna post a correction for this tab? Suggest correction