Oops, an error
Loading. Please wait.

Heroheroine Acoustic tab

version 2
version 2

Whole song

2,616 views 12 this week
no commentswrite comment
1 2 3 4 5
3 more votes to show rating
add to favorites
×
Save as Personal and add changes to this tab that will be seen only by you. Learn more ›
×
You can save this tab as Personal to edit and correct it or add notes. All changes will be seen only by you. Learn more »
launch autoscroll
font size
0
reset
how to read this tab
guitar tuner
edit
Autoscroll
slow
fast
+/-
esc
set tempo
stop
-------------------------------------------------------------------------------
                         Hero/heroine - Boys Like Girls
-------------------------------------------------------------------------------
Hero/Heroine Acoustic
This is how they play it in this video
http://www.youtube.com/watch?v=0Vy8h4NOHy0
Refer to the video for timing/strumming patterns, etc.
May not be exactly the way they play it, but it sounds right.

Email:manjyome_thunder@live.com

Tuning:Drop C (CGCFAD)

Intro:
  _________
 |Rhythm   |
d|-------0-|
A|---0-----|
F|-5---5---| x8
C|---------|
G|---------|
C|---------|
  _________________________________________________________________
 |Rhythm                                                           |
d|-------0-------0-------0-------0-------3-------3-------3-------3-|
A|---0-------0-------0-------0-------0-------0-------0-------0-----|
F|-5---5---5---5---5---5---5---5---5---5---5---5---5---5---5---5---|
C|-----------------------------------------------------------------|
G|-----------------------------------------------------------------|
C|-----------------------------------------------------------------|
 |Lead|
d|-8---8---8---8---8---8---8---8-----------------------------------|
A|---------------------------------8---8---8---8---8---8---8---8---|
F|-----------------------------------------------------------------|
C|-----------------------------------------------------------------|
G|-----------------------------------------------------------------|
C|-----------------------------------------------------------------|
  _________________________________________________________________
 |Rhythm                                                           |
d|-------0-------0-------0-------3-------3-------3-------3-------3-|
A|---0-------0-------0-------0-------0-------0-------0-------0-----|
F|-5---5---5---5---5---5---5---5---5---5---5---5---5---5---5---5---|
C|-----------------------------------------------------------------|
G|-----------------------------------------------------------------|
C|-----------------------------------------------------------------|
 |Lead                                                             |
d|-5---5---5---5---5---5---5---5---6---6---6---6---6---6---6---6---|
A|-----------------------------------------------------------------|
F|-----------------------------------------------------------------|
C|-----------------------------------------------------------------|
G|-----------------------------------------------------------------|
C|-----------------------------------------------------------------|

Verse:
  _________________________________________________________________
 |Rhythm                                                           |
d|-------0-------0-------0-------0-------0-------0-------0-------0-|
A|---0-------0-------0-------0-------0-------0-------0-------0-----|
F|-5---5---5---5---5---5---5---5---5---5---5---5---5---5---5---5---|
C|-----------------------------------------------------------------|
G|-----------------------------------------------------------------|
C|-----------------------------------------------------------------|
 |Lead|
d|-8---8---8---8---8---8---8---8-----------------------------------|
A|---------------------------------8---8---8---8---8---8---8---8---|
F|-----------------------------------------------------------------|
C|-----------------------------------------------------------------|
G|-----------------------------------------------------------------|
C|-----------------------------------------------------------------|
  _________________________________________________________________
 |Rhythm                                                           |
d|-------0-------0-------0-------0-------0-------0-------0-------0-|
A|---0-------0-------0-------0-------0-------0-------0-------0-----|
F|-5---5---5---5---5---5---5---5---5---5---5---5---5---5---5---5---|
C|-----------------------------------------------------------------|
G|-----------------------------------------------------------------|
C|-----------------------------------------------------------------|
 |Lead                                                             |
d|-5---5---5---5---5---5---5---5---6---6---6---6---6---6---6---6---|
A|-----------------------------------------------------------------|
F|-----------------------------------------------------------------|
C|-----------------------------------------------------------------| X2
G|-----------------------------------------------------------------|
C|-----------------------------------------------------------------|

Pre-Chorus:
  ________________________________________________________________
 |Rhythm               You caught me off guard...                 |
d|----------------------------------------------------------------|
A|----------------------------------------------------------------|
F|----------------------------------------------------------------|
C|-5-5-5-5-5--7-7-7-7--3-3-3-3-3-3-3-3-3-3------------------------|
G|-5-5-5-5-5--7-7-7-7--3-3-3-3-3-3-3-3-3-3------------------------|
C|-5-5-5-5-5--7-7-7-7--3-3-3-3-3-3-3-3-3-3------------------------|
 |Lead                                                            |
d|-----3-----3-----3-----3-----3-----3-----3----------------------|
A|---3-----3-----3-----3-----3-----3-----3------------------------|
F|-0-----0-----0-----0-----0-----0-----0-----Repeat as necessary--|
C|----------------------------------------------------------------|
G|----------------------------------------------------------------|
C|----------------------------------------------------------------|
  ________________________________________________________________
 |Rhythm               Now I'm running and screaming....          |
d|----------------------------------------------------------------|
A|----------------------------------------------------------------|
F|----------------------------------------------------------------|
C|-5-5-5-5-5--7-7-7-7--3~-----------------------------------------|
G|-5-5-5-5-5--7-7-7-7--3~-----------------------------------------|
C|-5-5-5-5-5--7-7-7-7--3~-----------------------------------------|
 |Lead                                                            |
d|---3---3---3---3---3--------------------------------------------|
A|--3---3---3---3---3---------------------------------------------|
F|-0---0---0---0---0----------------------------------------------|
C|----------------------------------------------------------------|
G|----------------------------------------------------------------|
C|----------------------------------------------------------------|

Chorus:
  _________________________________________________________________
 |Rhythm                                                           |
d|-------0-------0-------0-------0-------0-------0-------0-------0-|
A|---0-------0-------0-------0-------0-------0-------0-------0-----|
F|-5---5---5---5---5---5---5---5---5---5---5---5---5---5---5---5---|
C|-----------------------------------------------------------------|
G|-----------------------------------------------------------------|
C|-----------------------------------------------------------------|
 |Lead (Palm Mute)                                                 |
d|-----------------------------------------------------------------|
A|-----------------------------------------------------------------|
F|-55---55---55--55------------------------------------------------|
C|-55---55---55--55----------------55---55---55--55----------------|
G|-33---33---33--33----------------55---55---55--55----------------|
C|---------------------------------55---55---55--55----------------|
  _________________________________________________________________
 |Rhythm                                                           |
d|-------0-------0-------0-------0-------0-------0-------0-------0-|
A|---0-------0-------0-------0-------0-------0-------0-------0-----|
F|-5---5---5---5---5---5---5---5---5---5---5---5---5---5---5---5---|
C|-----------------------------------------------------------------|
G|-----------------------------------------------------------------|
C|-----------------------------------------------------------------|
 |Lead (Palm Mute)                                                 |
d|-----------------------------------------------------------------|
A|-----------------------------------------------------------------|
F|-----------------------------------------------------------------|
C|-33---33---33--33------------------------------------------------|
G|-33---33---33--33------------------------------------------------|
C|-33---33---33--33------------------------------------------------|
 
Verse 2
  _________________________________________________________________
 |Rhythm                                                           |
d|-------0-------0-------0-------0-------3-------3-------3-------3-|
A|---0-------0-------0-------0-------0-------0-------0-------0-----|
F|-5---5---5---5---5---5---5---5---5---5---5---5---5---5---5---5---|
C|-----------------------------------------------------------------|
G|-----------------------------------------------------------------|
C|-----------------------------------------------------------------|
 |Lead                                                             |
d|-----------------------------------------------------------------|
A|-----------------------------------------------------------------|
F|-5-5-5-5-5-5-5-5-5-5-5-5-5-5-5-5---------------------------------|
C|-5-5-5-5-5-5-5-5-5-5-5-5-5-5-5-5-5-5-5-5-5-5-5-5-5-5-5-5-5-5-5-5-|
G|-3-3-3-3-3-3-3-3-3-3-3-3-3-3-3-3-5-5-5-5-5-5-5-5-5-5-5-5-5-5-5-5-|
C|---------------------------------5-5-5-5-5-5-5-5-5-5-5-5-5-5-5-5-|

  _________________________________________________________________
 |Rhythm                                                           |
d|-------0-------0-------0-------0-------3-------3-------3-------3-|
A|---0-------0-------0-------0-------0-------0-------0-------0-----|
F|-5---5---5---5---5---5---5---5---5---5---5---5---5---5---5---5---|
C|-----------------------------------------------------------------|
G|-----------------------------------------------------------------|
C|-----------------------------------------------------------------|
 |Lead                                                             |
d|-----------------------------------------------------------------|
A|-----------------------------------------------------------------|
F|-----------------------------------------------------------------|
C|-2-2-2-2-2-2-2-2-2-2-2-2-2-2-2-2-3-3-3-3-3-3-3-3-3-3-3-3-3-3-3-3-|
G|-2-2-2-2-2-2-2-2-2-2-2-2-2-2-2-2-3-3-3-3-3-3-3-3-3-3-3-3-3-3-3-3-|
C|-2-2-2-2-2-2-2-2-2-2-2-2-2-2-2-2-3-3-3-3-3-3-3-3-3-3-3-3-3-3-3-3-|
  _________________________________________________________________
 |Rhythm                                                           |
d|-------0-------0-------0-------0-------3-------3-------3-------3-|
A|---0-------0-------0-------0-------0-------0-------0-------0-----|
F|-5---5---5---5---5---5---5---5---5---5---5---5---5---5---5---5---|
C|-----------------------------------------------------------------|
G|-----------------------------------------------------------------|
C|-----------------------------------------------------------------|
 |Lead                                                             |
d|-----------------------------------------------------------------|
A|-----------------------------------------------------------------|
F|-----------------------------------------------------------------|
C|-----------------------------------------------------------------|
G|-3---3---3---3---3---3---3---3-----------------------------------|
C|---------------------------------5---5---5---5---5---5---5---5---|
  _________________________________________________________________
 |Rhythm                                                           |
d|-------0-------0-------0-------0-------3-------3-------3-------3-|
A|---0-------0-------0-------0-------0-------0-------0-------0-----|
F|-5---5---5---5---5---5---5---5---5---5---5---5---5---5---5---5---|
C|-----------------------------------------------------------------|
G|-----------------------------------------------------------------|
C|-----------------------------------------------------------------|
 |Lead                                                             |
d|-----------------------------------------------------------------|
A|-----------------------------------------------------------------|
F|-----------------------------------------------------------------|
C|-----------------------------------------------------------------|
G|-----------------------------------------------------------------|
C|-2---2---2---2---2---2---2---2---3---3---3---3---3---3---3---3---|

Pre-Chorus

Chorus:
  _________________________________________________________________
 |Rhythm                                                           |
d|-------0-------0-------0-------0-------0-------0-------0-------0-|
A|---0-------0-------0-------0-------0-------0-------0-------0-----|
F|-5---5---5---5---5---5---5---5---5---5---5---5---5---5---5---5---|
C|-----------------------------------------------------------------|
G|-----------------------------------------------------------------|
C|-----------------------------------------------------------------|
 |Lead (Palm Mute)                                                 |
d|-----------------------------------------------------------------|
A|-----------------------------------------------------------------|
F|-55---55---55--55------------------------------------------------|
C|-55---55---55--55----------------55---55---55--55----------------|
G|-33---33---33--33----------------55---55---55--55----------------|
C|---------------------------------55---55---55--55----------------|

The rhythm and lead kinda change role here..
  _________________________________________________________________
 |Rhythm                                                           |
d|-----------------------------------------------------------------|
A|-----------------------------------------------------------------|
F|-----------------------------------------------------------------|
C|-3-3-3-3-3-3-3-3-3-3-3-3-3-3-3-3-3-3-3-3-3-3-3-3-3-3-3-3-3-3-3-3-|
G|-3-3-3-3-3-3-3-3-3-3-3-3-3-3-3-3-3-3-3-3-3-3-3-3-3-3-3-3-3-3-3-3-|
C|-3-3-3-3-3-3-3-3-3-3-3-3-3-3-3-3-3-3-3-3-3-3-3-3-3-3-3-3-3-3-3-3-|
 |Lead                                                             |
d|-------3-------3-------3-------3-------3-------3-------3-------3-|
A|---0-------0-------0-------0-------0-------0-------0-------0-----|
F|-5---5---5---5---5---5---5---5---5---5---5---5---5---5---5---5---|
C|-----------------------------------------------------------------|
G|-----------------------------------------------------------------|
C|-----------------------------------------------------------------|

Chorus (Con't):
  _________________________________________________________________
 |Rhythm                                                           |
d|-----------------------------------------------------------------|
A|-----------------------------------------------------------------|
F|-5-5-5-5-5-5-5-5-5-5-5-5-5-5-5-5---------------------------------|
C|-5-5-5-5-5-5-5-5-5-5-5-5-5-5-5-5-5-5-5-5-5-5-5-5-5-5-5-5-5-5-5-5-|
G|-3-3-3-3-3-3-3-3-3-3-3-3-3-3-3-3-5-5-5-5-5-5-5-5-5-5-5-5-5-5-5-5-|
C|---------------------------------5-5-5-5-5-5-5-5-5-5-5-5-5-5-5-5-|
 |Lead                                                             |
d|-----------------------------------------------------------------|
A|-----------------------------------------------------------------|
F|-5-5-5-5-5-5-5-5-5-5-5-5-5-5-5-5---------------------------------|
C|-5-5-5-5-5-5-5-5-5-5-5-5-5-5-5-5-5-5-5-5-5-5-5-5-5-5-5-5-5-5-5-5-|
G|-3-3-3-3-3-3-3-3-3-3-3-3-3-3-3-3-5-5-5-5-5-5-5-5-5-5-5-5-5-5-5-5-|
C|---------------------------------5-5-5-5-5-5-5-5-5-5-5-5-5-5-5-5-|

  _________________________________________________________________
 |Rhythm                                                           |
d|-----------------------------------------------------------------|
A|-----------------------------------------------------------------|
F|-----------------------------------------------------------------|
C|-3-3-3-3-3-3-3-3-3-3-3-3-3-3-3-3-3-3-3-3-3-3-3-3-3-3-3-3-3-3-3-3-|
G|-3-3-3-3-3-3-3-3-3-3-3-3-3-3-3-3-3-3-3-3-3-3-3-3-3-3-3-3-3-3-3-3-|
C|-3-3-3-3-3-3-3-3-3-3-3-3-3-3-3-3-3-3-3-3-3-3-3-3-3-3-3-3-3-3-3-3-|
 |Lead                                                             |
d|-------3-------3-------3-------3-------3-------3-------3-------3-|
A|---0-------0-------0-------0-------0-------0-------0-------0-----|
F|-5---5---5---5---5---5---5---5---5---5---5---5---5---5---5---5---|
C|-----------------------------------------------------------------|
G|-----------------------------------------------------------------|
C|-----------------------------------------------------------------|

Bridge:
  _________________________________________________________________
 |Rhythm                                                           |
d|-----------------------------------------------------------------|
A|-----------------------------------------------------------------|
F|-5~--------------------------------------------------------------|
C|-5~------------------------------5~------------------------------|
G|-3~------------------------------5~------------------------------|
C|---------------------------------5~------------------------------|
 |Lead                                                             |
d|-------0-------0-------0-------0-------0-------0-------0-------0-|
A|---0-------0-------0-------0-------0-------0-------0-------0-----|
F|-5---5---5---5---5---5---5---5---5---5---5---5---5---5---5---5---|
C|-----------------------------------------------------------------|
G|-----------------------------------------------------------------|
C|-----------------------------------------------------------------|

  _________________________________________________________________
 |Rhythm                                                           |
d|-----------------------------------------------------------------|
A|-----------------------------------------------------------------|
F|-----------------------------------------------------------------|
C|-3~------------------------------3~------------------------------|
G|-3~------------------------------3~------------------------------|
C|-3~------------------------------3~------------------------------|
 |Lead                                                             |
d|-------0-------0-------0-------0-------0-------0-------0-------0-|
A|---0-------0-------0-------0-------0-------0-------0-------0-----|
F|-5---5---5---5---5---5---5---5---5---5---5---5---5---5---5---5---|
C|-----------------------------------------------------------------|
G|-----------------------------------------------------------------|
C|-----------------------------------------------------------------|

  _________________________________________________________________
 |Rhythm                                                           |
d|-----------------------------------------------------------------|
A|-----------------------------------------------------------------|
F|-5-5-5-5-5-5-5-5-5-5-5-5-5-5-5-5---------------------------------|
C|-5-5-5-5-5-5-5-5-5-5-5-5-5-5-5-5-5-5-5-5-5-5-5-5-5-5-5-5-5-5-5-5-|
G|-3-3-3-3-3-3-3-3-3-3-3-3-3-3-3-3-5-5-5-5-5-5-5-5-5-5-5-5-5-5-5-5-|
C|---------------------------------5-5-5-5-5-5-5-5-5-5-5-5-5-5-5-5-|
 |Lead                                                             |
d|-------0-------0-------0-------0-------0-------0-------0-------0-|
A|---0-------0-------0-------0-------0-------0-------0-------0-----|
F|-5---5---5---5---5---5---5---5---5---5---5---5---5---5---5---5---|
C|-----------------------------------------------------------------|
G|-----------------------------------------------------------------|
C|-----------------------------------------------------------------|


  _________________________________________________________________
 |Rhythm                                                           |
d|-----------------------------------------------------------------|
A|-----------------------------------------------------------------|
F|-----------------------------------------------------------------|
C|-3-3-3-3-3-3-3-3-3-3-3-3-3-3-3-3-3-3-3-3-3-3-3-3-3-3-3-3-3-3-3-3-|
G|-3-3-3-3-3-3-3-3-3-3-3-3-3-3-3-3-3-3-3-3-3-3-3-3-3-3-3-3-3-3-3-3-|
C|-3-3-3-3-3-3-3-3-3-3-3-3-3-3-3-3-3-3-3-3-3-3-3-3-3-3-3-3-3-3-3-3-|
 |Lead                                                             |
d|-------0-------0-------0-------0-------0-------0-------0-------0-|
A|---0-------0-------0-------0-------0-------0-------0-------0-----|
F|-5---5---5---5---5---5---5---5---5---5---5---5---5---5---5---5---|
C|-----------------------------------------------------------------|
G|-----------------------------------------------------------------|
C|-----------------------------------------------------------------|

Pre Chorus (variation):

  ________________________________________________________________
 |Rhythm                You caught me off guard...                |
d|----------------------------------------------------------------|
A|----------------------------------------------------------------|
F|----------------------------------------------------------------|
C|-5----------7~---------3~---------------------------------------|
G|-5----------7~---------3~---------------------------------------|
C|-5----------7~---------3~---------------------------------------|
 |Lead                                                            |
d|---3---3---3---3---3---3---3---3---3---3------------------------|
A|--3---3---3---3---3---3---3---3---3---3-------------------------|
F|-0---0---0---0---0---0---0---0---0---0--------------------------|
C|----------------------------------------------------------------|
G|----------------------------------------------------------------|
C|----------------------------------------------------------------|
  ________________________________________________________________
 |Rhythm               Now I'm running and screaming....          |
d|----------------------------------------------------------------|
A|----------------------------------------------------------------|
F|----------------------------------------------------------------|
C|-5~---------7~---------3~---------------------------------------|
G|-5~---------7~---------3~---------------------------------------|
C|-5~---------7~---------3~---------------------------------------|
 |Lead                                                            |
d|---3---3---3---3---3--------------------------------------------|
A|--3---3---3---3---3---------------------------------------------|
F|-0---0---0---0---0----------------------------------------------|
C|----------------------------------------------------------------|
G|----------------------------------------------------------------|
C|----------------------------------------------------------------|

Final Chorus:
  _________________________________________________________________
 |Rhythm                                                           |
d|-----------------------------------------------------------------|
A|-----------------------------------------------------------------|
F|-5-5-5-5-5-5-5-5-5-5-5-5-5-5-5-5---------------------------------|
C|-5-5-5-5-5-5-5-5-5-5-5-5-5-5-5-5-5-5-5-5-5-5-5-5-5-5-5-5-5-5-5-5-|
G|-3-3-3-3-3-3-3-3-3-3-3-3-3-3-3-3-5-5-5-5-5-5-5-5-5-5-5-5-5-5-5-5-|
C|---------------------------------5-5-5-5-5-5-5-5-5-5-5-5-5-5-5-5-|
 |Lead                                                             |
d|-----------------------------------------------------------------|
A|-----------------------------------------------------------------|
F|-5-5-5-5-5-5-5-5-5-5-5-5-5-5-5-5---------------------------------|
C|-5-5-5-5-5-5-5-5-5-5-5-5-5-5-5-5-5-5-5-5-5-5-5-5-5-5-5-5-5-5-5-5-|
G|-3-3-3-3-3-3-3-3-3-3-3-3-3-3-3-3-5-5-5-5-5-5-5-5-5-5-5-5-5-5-5-5-|
C|---------------------------------5-5-5-5-5-5-5-5-5-5-5-5-5-5-5-5-|

  _________________________________________________________________
 |Rhythm                                                           |
d|-----------------------------------------------------------------|
A|-----------------------------------------------------------------|
F|-----------------------------------------------------------------|
C|-3-3-3-3-3-3-3-3-3-3-3-3-3-3-3-3-3-3-3-3-3-3-3-3-3-3-3-3-3-3-3-3-|
G|-3-3-3-3-3-3-3-3-3-3-3-3-3-3-3-3-3-3-3-3-3-3-3-3-3-3-3-3-3-3-3-3-|
C|-3-3-3-3-3-3-3-3-3-3-3-3-3-3-3-3-3-3-3-3-3-3-3-3-3-3-3-3-3-3-3-3-|
 |Lead                                                             |
d|-------3-------3-------3-------3-------3-------3-------3-------3-|
A|---0-------0-------0-------0-------0-------0-------0-------0-----|
F|-5---5---5---5---5---5---5---5---5---5---5---5---5---5---5---5---|
C|-----------------------------------------------------------------|
G|-----------------------------------------------------------------|
C|-----------------------------------------------------------------|

Do this 4 times and then...

Outro:
  _________________________________________________________________
 |Rhythm                                                           |
d|-------0-------0-------0-------0-------3-------3-------3-------3-|
A|---0-------0-------0-------0-------0-------0-------0-------0-----|
F|-5---5---5---5---5---5---5---5---5---5---5---5---5---5---5---5---|
C|-----------------------------------------------------------------|
G|-----------------------------------------------------------------|
C|-----------------------------------------------------------------|
 |Lead|
d|-8---8---8---8---8---8---8---8-----------------------------------|
A|---------------------------------8---8---8---8---8---8---8---8---|
F|-----------------------------------------------------------------|
C|-----------------------------------------------------------------|
G|-----------------------------------------------------------------|
C|-----------------------------------------------------------------|
  _________________________________________________________________
 |Rhythm                                                           |
d|-------0-------0-------0-------3-------3-------3-------3-------3-|
A|---0-------0-------0-------0-------0-------0-------0-------0-----|
F|-5---5---5---5---5---5---5---5---5---5---5---5---5---5---5---5---|
C|-----------------------------------------------------------------|
G|-----------------------------------------------------------------|
C|-----------------------------------------------------------------|
 |Lead                                                             |
d|-5---5---5---5---5---5---5---5---6---6---6---6---6---6---6---6---|
A|-----------------------------------------------------------------|
F|-----------------------------------------------------------------|
C|-----------------------------------------------------------------|
G|-----------------------------------------------------------------|
C|-----------------------------------------------------------------|

Do this 2 times

~END~

************************************

| /   slide up
| \   slide down
| h   hammer-on
| p   pull-off
| ~   vibrato
| +   harmonic
| x   Mute note
| b   Bend
| pb  Pre-bend
| br  Bend release
| pbr Pre-bend release
| brb Bend release bend

************************************

            
            
Suggest correction
Creating personal tab
Creating personal tab
You can edit any tab online and save it as your Personal.

You can edit, replace or remove any tab part or add personal notes – all changes will be seen only by you.

Personal tabs can be accessed anytime from any device, even offline.
Learn more »
Give kudos to tab author, rate the tab!
1 2 3 4 5
comments
print report bad tab
guest
You may want to rate the tab now too:
select rating
Wanna post a correction for this tab? Suggest correction