Oops, an error
Loading. Please wait.

All That I Need tab

version 1
version 1

Whole song

by Boyzone
7,897 views 3 this week
1 commentread comment
1 2 3 4 5
1 last vote to show rating
add to favorites
×
Save as Personal and add changes to this tab that will be seen only by you. Learn more ›
×
You can save this tab as Personal to edit and correct it or add notes. All changes will be seen only by you. Learn more »
launch autoscroll
font size
0
reset
how to read this tab
guitar tuner
edit
Autoscroll
slow
fast
+/-
esc
set tempo
stop
All That I Need
Boyzone
tabbed by: roy 
This is my 1st Tab, so... if u find some mistakes, plz email me
to rockdrigoy2k@hotmail.com

Chords:

    C     G     Am    F
e --0-----3------0----1-----|
B --1-----3------1----1-----|
G --0-----0------2----2-----|
D --2-----0------2----3-----|
A --3-----2------0----3-----|
E --x-----3------x----1-----|


Intro:

    C              G            Am                   F  

e |----8-8-8-7------------------------------------------------------------|
B |------------10--8--8-8-10-10/12--10--8---------------------------------|
G |---------------------------------------9--9-10-12-12--10-9------9h10-9-|    
D |-----------------------------------------------------------10----------|
A |-----------------------------------------------------------------------|
E |-----------------------------------------------------------------------|

Verses  and bridge is like this:

 C                 G               Am              F
e ------------------------------------------------------------------|
B ---1-----1-----1----3-----3-----3---1-----1-----1-----------------|
G -----0-----0----------0-----0---------2-----2-------2-----2-----2-|
D -------2-----2----------0-----0---------2-----2-------3-----3-----|
A -3--------------------------------0---------------------3-----3---|
E ------------------3-------------------------------1---------------|

And the Chorus is the same Chords 

When The 1st Chorus end play this

    C              G            Am                   F  

e |--------8-7------------------------------------------------------------|
B |------------10--8--8-8-10-10/12--10--8---------------------------------|
G |---------------------------------------9--9-10-12-12--10-9------9h10-9-|    
D |-----------------------------------------------------------10----------|
A |-----------------------------------------------------------------------|
E |-----------------------------------------------------------------------|


Guitar Solo:

e |--7-5-5--5-8-7---------------------------------|
B |---------------10-8----------------------------|
G |--------------------9-7/5-7--10-9-7----7-------|
D |------------------------------------10----7-5--|
A |-----------------------------------------------|
E |-----------------------------------------------|


Chorus and Fade.

Questions??? --> rockdrigoy2k@hotmail.com 

            
            
Suggest correction
Creating personal tab
Creating personal tab
You can edit any tab online and save it as your Personal.

You can edit, replace or remove any tab part or add personal notes – all changes will be seen only by you.

Personal tabs can be accessed anytime from any device, even offline.
Learn more »
Give kudos to tab author, rate the tab!
1 2 3 4 5
comments
print report bad tab
1 comment total.
0 reply
midgetoto 10 Jan 22, 2010 08:47 AM

e |----8-8-8-7-------------------------------|
B |------------10--8--8-8-10/12--10--8-----

I think the intro should be like above (ive removed one of the 10's on the B. I think it goes straight to a slide to 12 and back without the additional one before

guest
Wanna post a correction for this tab? Suggest correction