Oops, an error
Loading. Please wait.

Lido Shuffle bass

1,816 views 42 this week
no commentswrite comment
1 2 3 4 5
x 3
add to favorites
×
Save as Personal and add changes to this tab that will be seen only by you. Learn more ›
×
You can save this tab as Personal to edit and correct it or add notes. All changes will be seen only by you. Learn more »
launch autoscroll
font size
0
reset
guitar tuner
backing track
0:00
0:00
edit
Autoscroll
slow
fast
+/-
esc
set tempo
stop
-------------------------------------------------------------------------------
                          Lido Shuffle - Boz Scaggs
-------------------------------------------------------------------------------
Tabbed by: CorporalCrunch
Tuning: Standard


[Intro]

G|------------------------------------------------------|
D|------------------------------------------------------|
A|------------------------------------------------------|
E|-1-1--1-1-1--1-1-1--1-1-1--1-1-1--1-1-1--1-1-1--1-1-2-|


[Verse 1] 

"Lido missed the boat that day..."
G|----------------------------------------------------------------------------------------------|
D|----------------------------------------------------------------------------------------------|
A|------------------------2--3-3--3-3-3--3-3-3--3-3-3--5-5--5-5-5--5-5-5--5-5-5--3-3--3-3-3-3-3-|
E|-3-3--3-3-3--3-3-3--3-3-----------------------------------------------------------------------|

G|------3---|
D|-3--------|
A|--------1-|
E|---1------|


[Verse 2] 

"At a tombstone bar..."
G|------------------------------------------------------------------------------------------|
D|------------------------------------------------------------------------------------------|
A|------------------------2--3-3--3-3-3--3-3-3--3-3-3--5-5--5-5-5--5-5-5--5-5-5--3-3--3-3-3-|
E|-3-3--3-3-3--3-3-3--3-3-------------------------------------------------------------------|

G|------------|
D|------------|
A|-5-5--5-5-5-|
E|------------|


[Verse 3]

 "Next stop Chi town..."
G|---------------------------------------------------------------------------------------------|
D|---------------------------------------------------------------------------------------------|
A|------------------------2--3-3--3-3-3--3-3-3--3-3-3---5--5--3----5--5--3----5--5-5--5-5--5-5-|
E|-3-3--3-3-3--3-3-3--3-3----------------------------------------------------------------------|

G|------------------------------------------------------------|
D|-------------------3--3-3--3-3--3-3--3-3--3-3--3-3--3\9-9/3-|
A|-5--5-5--5-5--5-5-------------------------------------------|
E|------------------------------------------------------------|


[Chorus] 

"Lido.. woah oh oh oh..."
G|-----------------------------------------------------------------------------------------------|
D|----------------------0-3-1-1--1-1-1--1-1-0-1-2-3-3--3-3-3--3-3-3--3-3-3--1--1-1-1--3--3-3-3-3-|
A|-1-1--1-1-1--1-1-1--1--------------------------------------------------------------------------|
E|-----------------------------------------------------------------------------------------------|

G|-----------------------------------------------------------------------------------------------|
D|----------------------0-3-1--1-1-1--0--0-0-0-------------3--3--1---1-1--3--3--1---1-1---3--3--1|
A|-1-1--1-1-1--1-1-1--1-------------------------3-3--1-------------------------------------------|
E|-----------------------------------------------------------------------------------------------|

G|------3---|
D|-3--------|
A|--------1-|
E|---1------|


[Verse 4] 

"Lido will be runnin'..."
G|----------------------------------------------------------------------------------------------|
D|----------------------------------------------------------------------------------------------|
A|------------------------2--3-3--3-3-3--3-3-3--3-3-3--5-5--5-5-5--5-5-5--5-5-5--3-3--3-3-3-3-3-|
E|-3-3--3-3-3--3-3-3--3-3-----------------------------------------------------------------------|

G|----------------------------------------------------------------------------|
D|----------------------------------------------------------------------------|
A|------------------------2--3-3--3-3-3--3-3-3--3-3-3---5--5--3----3--5--5--3-|
E|-3-3--3-3-3--3-3-3--3-3-----------------------------------------------------|

G|-------------------------------------------------------------------------------------|
D|--------------------------------------------3--3-3--3-3--3-3--3-3--3-3--3-3--3\9-9/3-|
A|-5--5-5--5-5--5-5--5-5--5-5--5-5--5-5--5-5-------------------------------------------|
E|-------------------------------------------------------------------------------------|


[Chorus] 

"Lido.. woah oh oh oh..."
G|-----------------------------------------------------------------------------------------------|
D|----------------------0-3-1-1--1-1-1--1-1-0-1-2-3-3--3-3-3--3-3-3--3-3-3--1--1-1-1--3--3-3-3-3-|
A|-1-1--1-1-1--1-1-1--1--------------------------------------------------------------------------|
E|-----------------------------------------------------------------------------------------------|

G|-----------------------------------------------------------------------------------------------|
D|----------------------0-3-1--1-1-1--0--0-0-0-------------3--3--1---1-1--3--3--1---1-1---3--3--1|
A|-1-1--1-1-1--1-1-1--1-------------------------3-3--1-------------------------------------------|
E|-----------------------------------------------------------------------------------------------|

G|------3---|
D|-3--------|
A|--------1-|
E|---1------|


[Interlude]

G|-----------------------------------------------------------------------------------------------|
D|-----------------------------------------------------------------------------3-3--3-3-3--3-3-3-|
A|------------------------2--3-3--3-3-3--3-3-3--3-3-3-5-5--5-5-5--5-5-5--5-5-5-------------------|
E|-3-3--3-3-3--3-3-3--3-3------------------------------------------------------------------------|

G|-----------------------------------------------------------------------------------------------|
D|-3-3-2---------------------------3-3--3-3-3--3-3-3--3-3-2---------------------------3-3--3-3-3-|
A|--------5-5--5-5-5--5-5-5--5-5-5--------------------------5-5--5-5-5--5-5-5--5-5-5-------------|
E|-----------------------------------------------------------------------------------------------|

G|------------------------------------------------------------------|
D|-3-3-3--3-3-2----------------------------3-3--3-3-3--3-3-3--3-3-3-|
A|---------------5-5--5-5-5--5-5-5--5-5-5---------------------------|
E|------------------------------------------------------------------|


[Chorus] 

"Lido.. woah oh oh oh..."
G|---------------------------------------------------------------------------------|
D|--------------------0-3-1-1-0-1-2-3-3--3-3-3--3-3-3--3-3-3--1--1-1-1--3--3-3-3---|
A|-1-1--1-1-1--1-1--1--------------------------------------------------------------|
E|-------------------------------------------------------------------------------1-|

G|-----------------------------------------------------------------------------------------------|
D|----------------------0-3-1--1-1-1--0--0-0-0-------------3--3--1---1-1--3--3--1---1-1---3--3--1|
A|-1-1--1-1-1--1-1-1--1-------------------------3-3--1-------------------------------------------|
E|-----------------------------------------------------------------------------------------------|

G|------3---|
D|-3--------|
A|--------1-|
E|---1------|


************************************
| /   Slide up
| \   Slide down
************************************

-------------------------------------------------------------------------------

            
            
Suggest correction
Creating personal tab
Creating personal tab
You can edit any tab online and save it as your Personal.

You can edit, replace or remove any tab part or add personal notes – all changes will be seen only by you.

Personal tabs can be accessed anytime from any device, even offline.
Learn more »
Give kudos to tab author, rate the tab!
1 2 3 4 5
comments
print report bad tab
guest
You may want to rate the tab now too:
select rating
Wanna post a correction for this tab? Suggest correction