Oops, an error
Loading. Please wait.

Start A Band intro tab

version 2
version 2

Intro

Interactive

12,620 views 1 this week
no commentswrite comment
1 2 3 4 5
x 4
add to favorites
×
Save as Personal and add changes to this tab that will be seen only by you. Learn more ›
×
You can save this tab as Personal to edit and correct it or add notes. All changes will be seen only by you. Learn more »
launch autoscroll
font size
0
reset
how to read this tab
guitar tuner
edit
Autoscroll
slow
fast
+/-
esc
set tempo
stop
This tab is made thanks to GeetarHeroMcD on Youtube.
He did this by ear it is his rendition and not necessarily exactly what the song sounds 
but its a really good acoustic version.
And this is a link to his video to get an idea how it supposed to sound:

*** http://www.youtube.com/watch?v=77Z9_R53MIk.

**Drop D tuning
**Capo 3rd Fret

h =hammer on
p =pull off
b =bend
/ =slide
~ =vibrato

e---------------------------------------------------------------------------|
B--------------------------------------------------------------3---3--------|
G---------------2----2-----------0------------------2---2----2-----3h4~--2--|
D----------0----2h4--2h4/2p0--2--0------------------2---2/4-----------------|
A------0h2---0---------------------2p0-------0h2--0---0---------------------|
E(D)-0----------------------------------5-0---------------------------------|

e--------------------------------------------------------------------------|
B----------------2/3/2b--2-------------------------------------------------|
G--------------------------2--------------------------------2--------------|
D--4/2p0----------------------4b---------------2-2-2-0-2/4-----4/2p0-------|
A---------2p0--------------------2----------0------------------------------|
E(D)-----------0--------------------0--2/4---------------------------------|

                     (D)
e-----10--------------2----|
B-----10--------------3----|
G---------------------2----|
D---------------------0----|
A---------------------x----|
E(D)------0--2b-p0----x----|

            
            
Suggest correction
Creating personal tab
Creating personal tab
You can edit any tab online and save it as your Personal.

You can edit, replace or remove any tab part or add personal notes – all changes will be seen only by you.

Personal tabs can be accessed anytime from any device, even offline.
Learn more »
comments
print report bad tab
guest
You may want to rate the tab now too:
select rating
Wanna post a correction for this tab? Suggest correction