Oops, an error
Loading. Please wait.

Ticks intro tab

version 1
version 1

Intro

Whole song

Interactive

25,918 views 72 this week
2 commentsread comments
1 2 3 4 5
x 6
add to favorites
×
Save as Personal and add changes to this tab that will be seen only by you. Learn more ›
×
You can save this tab as Personal to edit and correct it or add notes. All changes will be seen only by you. Learn more »
launch autoscroll
font size
0
reset
how to read this tab
guitar tuner
backing track
0:00
0:00
edit
Autoscroll
slow
fast
+/-
esc
set tempo
stop
Author
Difficulty
-------------------------------------------------------------------------------
                             Ticks - Brad Paisley
-------------------------------------------------------------------------------
Tabbed by: Travis Sand
Email: travis.sand@insightbb.com

Tuning: Standard EADGBE

This tab is pretty simple to play and fun to play as well.  The "" in this tab shows
you bend at.  This first bend (on the low E string 3rd fret) you want to bend up (or down
this case) slightly to about the 5th fret sound and on the second bend on the 4th fret G 
bend up to the 6th fret G string sound i.e. 3b5 and 4b6.  If you listen to the song
becomes real obvious.  Thanks.

e|---------------------------------------------------------------------------|
B|---------------------------------------------------------------------------|
G|-----------------4b6--4--2--4----------------------------------------------|
D|-------------------------------4/6--6--4--2--4-----------------------------|
A|----------0--0----------------------------------2--2-----------------------|
E|--0--3b5-------------------------------------------------------------------|

e|-----------------------------------------------------------------------------|
B|-----------------------------------------------------------------------------|
G|-----------------------------------------------------------------------------|
D|-----------------------------------------------------------------------------|
A|-------------0--0--4b6--4--2--4----------------------------------------------|
E|--0--0--3h4----------------------4/6--6p4--2--6--4--2or an E chord at end----|


| /  slide up
| \  slide down
| h  hammer-on
| p  pull-off
| ~  vibrato
| +  harmonic
| x  Mute note
===============================================================================

            
            
Suggest correction
Creating personal tab
Creating personal tab
You can edit any tab online and save it as your Personal.

You can edit, replace or remove any tab part or add personal notes – all changes will be seen only by you.

Personal tabs can be accessed anytime from any device, even offline.
Learn more »
comments
print report bad tab
2 comments total.
0 reply
spanky_sprks 10 Jul 14, 2007 05:44 PM

try to get the rest of the song done. this is good!!!

0 reply
tjsand33 44 Sep 17, 2007 07:06 PM

another thing...when they posted this tab the messed it up a little, the second half should pretty much resemble the first half although UG posted it on the wrong string.

guest
You may want to rate the tab now too:
select rating
Wanna post a correction for this tab? Suggest correction