Oops, an error
Loading. Please wait.

Skin Storm tab

version 1
version 1

Whole song

Interactive

61 views 1 this week
no commentswrite comment
1 2 3 4 5
2 more votes to show rating
add to favorites
×
Save as Personal and add changes to this tab that will be seen only by you. Learn more ›
×
You can save this tab as Personal to edit and correct it or add notes. All changes will be seen only by you. Learn more »
launch autoscroll
font size
0
reset
how to read this tab
guitar tuner
edit
Autoscroll
slow
fast
+/-
esc
set tempo
stop
Author
Difficulty
Tabbed from the original album version; https://www.youtube.com/watch?v=ARtvGGeGaBs

Tempo = 105

[VERSE 1]

[Verse riff]

     G              Fmaj7         Am  D    G             Bm            Am  D
e|E ||----------------------------|--------|---------------------------|----------|
B| ||-----12----------10---------|-(10)---|--------------7--10--------|(10)-------|
G| ||--------12-------9----------|-(9)----|-----12-------7--7---------|(70)-------| x4
D| ||-----------12s10------------|--------|--------12-10-9--9---------|(9)--------|
A| ||--10------------------------|--------|--10-------10-9--9---------|(9)--------|
E| ||----------------------------|--------|---------------------------|-----------|
   let ring

  G  Fmaj7
Delight
Am           D          G   Bm
  See our faces are both shining
Am         D            G    Fmaj7
  And I've never felt so wan-ted
Am             D                G     Bm
  Than when you cling with arms and legs

  G  Fmaj7
I tremble
Am             D                 G  Bm
  You crush my burning lips like ashes
Am            D         G   Fmaj7
  So much skin to travel over
Am             D            G  Bm     Am   D
  While my head spins like a liquid


[CHORUS]

[Chorus riff]

  C                            G                            Am
e|----------------------------|----------------------------|---------------------0----|--(0)-----------------|
B|--------3--------3----------|--------3-------------------|------1-----0h1-----------|--------1-----0h1--3--|
G|--0-----------0--------0----|-(0)-------------0-----2----|-----(2)------------------|----------------------|
D|----------------------------|----------------------------|--------------------------|----------------------|
A|----------------------------|----------------------------|--------------------------|----------------------|
E|----------------------------|----------------------------|--------------------------|----------------------|
let ring
x2

    C               G
And oh what a storm?
              Am
When it's wet and warm

    C               G
And oh what a storm?
              Am
When it's wet and warm
Bm       D          Fmaj7      C
  We shelter in our skin storm

 Bm      D       Fmaj7                        C
e|--2---|--(5)--|--12h10--------------(10)---|--8-----|
B|--3---|---7---|--10-----------------(10)---|--8-----|
G|--4---|---7---|--10-----------------(10)---|--9-----|
D|--4---|---7---|--10-----------------(10)---|--10----|
A|--2---|---5---|----------------------------|--------|
E|------|-------|----------------------------|--------|
   ^       ^      ^                            ^


[BRIDGE]

Guitar 1: [Verse riff] x1

Guitar 2:

    G        Fmaj7     Am               D                 G               Bm           Am            D
e||----------------|----------------------------------|-----------------------------|------------------------|
B||----------------|--12h13----12-------15s17----15~--|--------12-------------------|------------------------|
G||--4s-7--7~------|---------------12-----------------|--12h14----------------------|------------------------|
D||----------------|----------------------------------|-----------14---12~--(12)s9--|-9h-10---9~---5--7~--s0-|
A||----------------|----------------------------------|-----------------------------|------------------------|
E||----------------|----------------------------------|-----------------------------|------------------------|


[VERSE 2]

[Verse riff] x2

I feel
Feel your breath burn on my body
You touch my senses tingling brightly
Slip-and-sliding into heaven

  G                Fmaj7
e|--s12-----------------------|
B|--s12---15----13-12-x--10---|
G|--s12---12----12-12-x--12---|
D|--s12---12----12-12-x--12---|
A|----------------------------|
E|----------------------------|
  L-     o-    v-       e-

  Am                D                                  G                        Bm
e|--------------------------------------------x--x----|----------------------------------------------------|
B|--(10)------------------------------(10)----x--x----|--8s-10----10-10----10s---8-----8-------------------|
G|--(12)------------------------------(12)----x--x----|--7s-9-----9--9-----9s----7-----7s----9-----7~------|
D|--(12)------------------------------(12)----x--x----|--------------------------------------9-----9~------|
A|----------------------------------------------------|----------------------------------------------------|
E|----------------------------------------------------|----------------------------------------------------|
  Is such a       wonderful             e   mo        tion

  Am        D             G               Fmaj7
e|-----------------------|------12----10--------|
B|---5-------------------|--s12-----------------|
G|--s5-------------------|--s12-----------------|
D|--s7-------------------|--s12-----------------|
A|---7-------------------|----------------------|
E|-----------------------|----------------------|
     Such a rush of plea  sure mo  tion

 Am             D            G               Bm
e|--(10)--------------------|----------------7--7---------|--(7)----|
B|--------------------------|----------------7--10--------|--(10)---|
G|--------------------------|-------12-------7--7---------|--(7)----|
D|--------------------------|----------12-10-9--9---------|--(9)----|
A|--------------------------|----10-------10-9--9---------|--(9)----|
E|--------------------------|-----------------------------|---------|
    When I'm dancing on our skin

[CHORUS]

(As before)

And oh what a storm?
When it's wet and warm

And oh what a storm?
When it's wet and warm

We shelter in our skin storm


[BREAKDOWN]

Tempo= 110


e||----------------------------|----------------------------|
B||--------5-----------3-------|--------1-----------0-------|
G||-----0-----0-----0-----0----|-----0-----0-----0-----0----|  X4
D||--0-----------0-------------|--0-----------0-------------|
A||----------------------------|----------------------------|
E||----------------------------|----------------------------|
   let ring

[CHORUS/OUTRO]


Tempo= 105

(As before)

[Chorus riff] x3

    C           G     Am
And oh what a storm?
C           G
Oh what a sto

  Am
e|--0s-12-------12------------|-----12-------12------------|
B|--3s-13g13-------13----13L--|--13----13-------13----13---|
G|-----------14-------14------|-----------14-------14------|
D|----------------------------|----------------------------|
A|----------------------------|----------------------------|
E|----------------------------|----------------------------|
orm?

C            G      Am
Oh what a storm?
Bm       D          Fmaj7      C
  We shelter in our skin storm



************************************

| x    Dead note
| g    Grace note
| (n)  Ghost note
| h    Hammer-on
| ~    Vibrato
| s    Slide

************************************

            
            
Suggest correction
Creating personal tab
Creating personal tab
You can edit any tab online and save it as your Personal.

You can edit, replace or remove any tab part or add personal notes – all changes will be seen only by you.

Personal tabs can be accessed anytime from any device, even offline.
Learn more »
Give kudos to tab author, rate the tab!
1 2 3 4 5
comments
print report bad tab
guest
You may want to rate the tab now too:
select rating
Wanna post a correction for this tab? Suggest correction