Oops, an error
Loading. Please wait.

137 tab

version 1
version 1

Whole song

Interactive

2,383 views 42 this week
2 commentsread comments
1 2 3 4 5
x 4
add to favorites
×
Save as Personal and add changes to this tab that will be seen only by you. Learn more ›
×
You can save this tab as Personal to edit and correct it or add notes. All changes will be seen only by you. Learn more »
launch autoscroll
font size
0
reset
how to read this tab
guitar tuner
edit
Autoscroll
slow
fast
+/-
esc
set tempo
stop
[Intro] 
D#|-------------------------------------------------------------------------------------|
A#|-------------------------------------------------------------------------------------|
F#|-------------------------------------------------------------------------------------|
C#|-----2---------------------10---------7----------------------------------------------|
G#|---2---2----------------10----10----7---7--------------------------------------------|
D#|-0--------------------8-----------5--------------------------------------------------|
    
[Verse] 
D#|-------------------------------------------------------------------------------------|
A#|-------------------------------------------------------------------------------------|
F#|-------------------------------------------------------------------------------------|
C#|-------2-----------------10----------7-----------------------------------------------|
G#|-----2---2------------10----10-----7---7---------------------------------------------|
D#|---0----------------8------------5---------------------------------------------------|
  
[Chorus] 
D#|------------------------------|-------------------------|
A#|------------------------------|-------------------------|
F#|----7h9--7--------------------|--7h9--7--------------7--|
C#|------------9--5--7--9--7--5--|----------9--5--7--9-----|
G#|------------------------------|-------------------------|
D#|------------------------------|-------------------------|

D#|------------------------------|--------------------|
A#|------------------------------|--------------------|
F#|----7h9--7--------------------|--------------------|
C#|------------9--5--7--9--7--5--|--5h7--5------------|
G#|------------------------------|-----------7--5--7--|
D#|------------------------------|--------------------|



************************************

| h  Hammer-on 

************************************

            
            
Suggest correction
Creating personal tab
Creating personal tab
You can edit any tab online and save it as your Personal.

You can edit, replace or remove any tab part or add personal notes – all changes will be seen only by you.

Personal tabs can be accessed anytime from any device, even offline.
Learn more »
comments
print report bad tab
2 comments total.
0 reply
lordofthefood1 462 Aug 23, 2017 08:03 PM

Nice start!

0 reply
bobbo2010 10 Oct 15, 2017 02:03 PM

I just like the Nagasaki line

guest
You may want to rate the tab now too:
select rating
Wanna post a correction for this tab? Suggest correction