Oops, an error
Loading. Please wait.

Bought A Bride bass

version 1
version 1

Whole song

Interactive

4,791 views 3 this week
no commentswrite comment
1 2 3 4 5
2 more votes to show rating
add to favorites
×
Save as Personal and add changes to this tab that will be seen only by you. Learn more ›
×
You can save this tab as Personal to edit and correct it or add notes. All changes will be seen only by you. Learn more »
launch autoscroll
font size
0
reset
guitar tuner
edit
Autoscroll
slow
fast
+/-
esc
set tempo
stop
-------------------------------------------------------------------------------
			     Bought A Bride - Brand New
-------------------------------------------------------------------------------

Tabbed By : Nick Seney
e-mail: theseney@yahoo.com

Tuning: Drop D

Alrightttt the only parts I'm not too sure about are the end of the bought a bride part,
and the distorted guitar solo bit at 1:20, 
it sounds like he plays a variation of the main chorus/verse riff

Verse/Chorus
G|--------------------------------|
D|--------------------------------|
A|-5h777-------------------5555---|
D|-------2-2-2-2-2-2-2-2-2--------|x4

Little Fill Before screamy part (00:35)
G|----------|
D|----------|
A|-----9----|
D|-5-9---9--|

Chorus x4

"Bought A Bride" Part
G|--------------------------------|
D|--------------------------------|
A|-5h7~---------------------------|
D|---------2~--------10~--10-7-5--|x4

"Coming down the..."
G|----------------------------------------------------------|
D|----------------------------------------------------------|
A|----------------------------------------------------------|
D|-10101010-10101010-10101010-10101010-7777-7777-7777-55~---|x1

Chorusx6
Bought A Bride part x4
Coming down the... Part x1

Solo
G|------------------------------|
D|------------------------------|
A|-5h777---------5h777----------|
D|-------10-10---------10-10----|x4

G|-------------------------------------------------|
D|-------------------------------------------------|
A|-------------------------------------------------|
D|-7777-7777-7777-7777-10101010-10101010-7777-55~--|

Solo x2

End On:
G|----|
D|----|
A|----|
D|-2~-|


| /  slide up
| \  slide down
| h  hammer-on
| p  pull-off
| ~  vibrato
| +  harmonic
| x  Mute note
===============================================================================

            
            
Suggest correction
Creating personal tab
Creating personal tab
You can edit any tab online and save it as your Personal.

You can edit, replace or remove any tab part or add personal notes – all changes will be seen only by you.

Personal tabs can be accessed anytime from any device, even offline.
Learn more »
Give kudos to tab author, rate the tab!
1 2 3 4 5
comments
print report bad tab
guest
You may want to rate the tab now too:
select rating
Wanna post a correction for this tab? Suggest correction