Oops, an error
Loading. Please wait.

Brothers Song chords

6,310 views 42 this week
1 commentread comment
1 2 3 4 5
x 10
add to favorites
×
Save as Personal and add changes to this tab that will be seen only by you. Learn more ›
×
You can save this tab as Personal to edit and correct it or add notes. All changes will be seen only by you. Learn more »
launch autoscroll
font size
0
reset
transpose
0
reset
simplify chords
display chords
guitar tuner
edit
Autoscroll
slow
fast
+/-
esc
set tempo
stop
Author
Difficulty
Strumming
There is no strumming pattern for this song yet. and get +5 IQ
Brand New
Brother's Song (AKA Untitled 3, Brothers)
This is a completely different song to Coca-Cola.
This is also a completely different version to the "reworked" version released in 2016.

Tabbed by Mattaeopteryx in 2016.
Tuning: Standard
Difficulty: Novice

CHORDS USED

   F5   A5    G5     C5
e----------------------------|
B----------------------------|
G----------------------------|
D--3-----7-----5-----10------|
A--3-----7-----5-----10------|
E--1-----5-----3-----8-------|


INTRO
e|------------------------------------------------------------------------------------|
B|------------------------------------------------------------------------------------|
G|------------------------------------------------------------------------------------|
D|-10--10--9---9---9---------------9----9----9------------7---------------------------|
A|-10--10--10--10--10-(let ring)---10---10---10------8--8----8--7--7--/5-5------------|
E|-8---8---8---8---0---------------0----0----0-------5--5----5--5--5--/3-3------------| [x2]
                                   *    *    *   
       * play very softly



VERSE 1

F5                     A5            G5                    F5  
So the air's getting colder and the news keeps us scared.

                       A5            G5                             F5
I still wrestle this summer from the bones of our tired, blistered hands.

                       A5                 G5                 F5
'Cause tonight we got drinks, and just a couple of friends.

         A5                   G5                               F5
And the girl that my brother likes is finally talking to him.

         A5              G5                             F5
And his chest is all swelled like he's proud and happy.

                       G5
Like he's got a great idea, like he's making a memory.





C5                 A5         G5
Wake up, and come out to the car.

            C5                          A4              G5        F5
There's an East swell coming and it's howling off shore and we'll be...

A5          G5              F5                
Lying like lions out in the sand.

     A5     (let ring)            G5 (let ring)
And I'll be dead before you put a gun in my brother's hands.



e|------------------------------------------------------------------------------------|
B|------------------------------------------------------------------------------------|
G|------------------------------------------------------------------------------------|
D|-10--10--9---9---9---------------9----9----9------------7---------------------------|
A|-10--10--10--10--10-(let ring)---10---10---10------8--8----8--7--7--/5-5------------|
E|-8---8---8---8---0---------------0----0----0-------5--5----5--5--5--/3-3------------| [x2]
                                   *    *    *   
       * play very softly




F5                    A5           G5              F5
So we make jokes back home and we lighten the mood.

                    A5                G5                                       F5
But growing up our parents saw what sending the kids to fight could really do.

                  A5                       G5                F5
And now with the war I can tell they're a little shook up.

                            A5               G5               F5
'Cause just a few mothers' sons will never really be enough.

                      A5              G5                 F5
Not 'til half of our names are etched out in the wall...

                       G5
...and the other half ruined from the things we saw.



e|------------------------------------------------------------------------------------|
B|------------------------------------------------------------------------------------|
G|------------------------------------------------------------------------------------|
D|-10--10--9---9---9---------------9----9----9------------7---------------------------|
A|-10--10--10--10--10-(let ring)---10---10---10------8--8----8--7--7--/5-5------------|
E|-8---8---8---8---0---------------0----0----0-------5--5----5--5--5--/3-3------------| [x2]
                                   *    *    *   
       * play very softly



C5                 A5         G5
Wake up, and come out to the car.

            C5                          A4              G5        F5
There's an East swell coming and it's howling off shore and we'll be...

A5          G5              F5                
Lying like lions out in the sand.

     A5                           G5 
And I'll be dead before you put a gun in my brother's hands.



e|------------------------------------------------------------------------------------|
B|------------------------------------------------------------------------------------|
G|------------------------------------------------------------------------------------|
D|-10--10--9---9---9---------------9----9----9------------7---------------------------|
A|-10--10--10--10--10-(let ring)---10---10---10------8--8----8--7--7--/5-5------------|
E|-8---8---8---8---0---------------0----0----0-------5--5----5--5--5--/3-3------------| 
                                   *    *    *   


e|------------------------------------------------------------------------------------|
B|------------------------------------------------------------------------------------|
G|------------------------------------------------------------------------------------|
D|-10--10--9---9---9---------------9----9----9------------7---------------------------|
A|-10--10--10--10--10-(let ring)---10---10---10------8--8----8--7--7--/5-5-10---------|
E|-8---8---8---8---0---------------0----0----0-------5--5----5--5--5--/3-3-8----------| 
       * play very softly          *    *    *                             *







            
            
Suggest correction
Creating personal tab
Creating personal tab
You can edit any tab online and save it as your Personal.

You can edit, replace or remove any tab part or add personal notes – all changes will be seen only by you.

Personal tabs can be accessed anytime from any device, even offline.
Learn more »
comments
print report bad tab
1 comment total.
0 reply
deanmesh 10 Jul 31, 2016 06:40 AM

pretty accurate thanks dude but i think you should take out the tab between the verse and chorus because it fits better with auto scroll while playing along with the song :D

guest
You may want to rate the tab now too:
select rating
Wanna post a correction for this tab? Suggest correction