Oops, an error
Loading. Please wait.

Luca tab

version 5
version 5

Whole song

Interactive

796 views 9 this week
no commentswrite comment
1 2 3 4 5
x 4
add to favorites
×
Save as Personal and add changes to this tab that will be seen only by you. Learn more ›
×
You can save this tab as Personal to edit and correct it or add notes. All changes will be seen only by you. Learn more »
launch autoscroll
font size
0
reset
how to read this tab
guitar tuner
edit
Autoscroll
slow
fast
+/-
esc
set tempo
stop
Song: Luca
Artist: Brand New
Album: The Devil and God Are Raging Inside Me

Tuning: Standard


This covers mostly the acoustic parts, except for the outro which is lead


[Intro/Part of verse I]

[0:00 - 0:42]

e|---------------------------------------------------|
B|----------1-----------1-----------1-----------1----|
G|------2-----2-----2-----2-----2-----2-----2-----2--| x8
D|----2---2-------0---0-------0---0-------0---0------|
A|--0-----------2-----------3-----------2------------|
E|---------------------------------------------------|


[Other part of first verse I ]

[0:43 - 1:04]

e|---------------------------------------------------|
B|----------1-----------1-----------1-----------1----|
G|------2-----2-----2-----2-----2-----2-----2-----2--| x4  **** Playing this the same way as the intro sounds
D|----2---2-------2---2-------0---0-------0---0------| a little off. This way accompanies the lead/bass better
A|--0-----------0-----------3-----------2------------|
E|---------------------------------------------------|


[Chorus I]

[1:05 - 1:11]

e|---------------------------------------------------------------------------|
B|----------1-----------1-----------0-----------0-----------0-----------0----|
G|------0-----0-----0-----0-----0-----0-----0-----0-----0-----0-----0-----0--|
D|----2---2-------2---2-------2---2-------2---2-------2---2-------2---2------|
A|--3-----------3------------------------------------------------------------|
E|--------------------------0-----------0-----------0-----------0------------|


[Pre-Verse II]

[1:12 - 1:21]

e|---------------------------------------------------|
B|----------1-----------1-----------1-----------1----|
G|------2-----2-----2-----2-----2-----2-----2-----2--| x2
D|----2---2-------0---0-------0---0-------0---0------|
A|--0-----------2-----------3-----------2------------|
E|---------------------------------------------------|


[Verse II]

[1:22 - 2:05]

e|---------------------------------------------------|---------------------------------------------------|
B|---------------------------------------------------|---------------------------------------------------|
G|---------------------------------------------------|---------------------------------------------------| x3
D|---------------------------------------------------|---------------------------------------------------|
A|--0-0-0-0-0-0-0-0-0-0-0-0-3-3-3-3-3-3--------------|--0-0-0-0-0-0-0-0-0-0-0-0--------------------------|
E|--------------------------------------0-0-0-0-0-0--|--------------------------0-0-0-0-0-0-3-3-3-3-3-3--|

e|---------------------------------------------------|---------------------------------------------------|
B|---------------------------------------------------|---------------------------------------------------|
G|---------------------------------------------------|---------------------------------------------------|
D|---------------------------------------------------|--------------------------------------0-0-0-0-0-0--|
A|--0-0-0-0-0-0-0-0-0-0-0-0-3-3-3-3-3-3--------------|--0-0-0-0-0-0-2-2-2-2-2-2-3-3-3-3-3-3--------------|
E|--------------------------------------0-0-0-0-0-0--|---------------------------------------------------|


[Chorus II]

[2:05 - 2:36]

e|---------------------------------------------------------------------------|
B|----------1-----------1-----------0-----------0-----------0-----------0----|
G|------0-----0-----0-----0-----0-----0-----0-----0-----0-----0-----0-----0--|
D|----2---2-------2---2-------2---2-------2---2-------2---2-------2---2------|
A|--3-----------3------------------------------------------------------------|
E|--------------------------0-----------0-----------0-----------0------------|

e|---------------------------------------------------|
B|----------1-----------1-----------1-----------1----|
G|------2-----2-----2-----2-----2-----2-----2-----2--| 
D|----2---2-------0---0-------0---0-------0---0------|     
A|--0-----------2-----------3-----------2------------|
E|---------------------------------------------------|

e|---------------------------------------------------------------------------|
B|----------1-----------1-----------0-----------0-----------0-----------0----|
G|------0-----0-----0-----0-----0-----0-----0-----0-----0-----0-----0-----0--|
D|----2---2-------2---2-------2---2-------2---2-------2---2-------2---2------|
A|--3-----------3------------------------------------------------------------|
E|--------------------------0-----------0-----------0-----------0------------|

e|---------------------------------------------------|
B|----------1-----------1-----------1-----------1----|
G|------2-----2-----2-----2-----2-----2-----2-----2--| x2
D|----2---2-------2---2-------0---0-------0---0------|
A|--0-----------0-----------3-----------2------------|
E|---------------------------------------------------|


[Bridge]

[2:37 - 3:26]
                                                                  *** Fades out here (or just strum the chord)
e|---------------------------------------------------|-----------------------------------------------------|
B|----------1-----------1-----------1-----------0----|---------1------------1------------1------------1----|
G|------0-----0-----0-----0-----2-----2-----0-----0--|-----2-----2------2-----2------2-----2------2-----2--|x2
D|----2---2-------0---0-------2---2-------2---2------|---3---3--------3---3--------3---3--------3---3------| 
A|--3-----------2-----------0------------------------|-----------------------------------------------------|
E|--------------------------------------3------------|-1------------1------------1------------1------------|

                                                                  *** Fades out here (or just strum the chord)
e|---------------------------------------------------|-----------------------------------------------------|
B|----------1-----------1-----------1-----------1----|---------1------------1------------1------------1----|
G|------2-----2-----2-----0-----0-----0-----2-----0--|-----2-----2------2-----2------2-----2------2-----2--|
D|----2---2-------0---0-------2---2-------0---0------|---3---3--------3---3--------3---3--------3---3------|
A|--0-----------2-----------3-----------2------------|-----------------------------------------------------|
E|---------------------------------------------------|-1------------1------------1------------1------------|

e|---------------------------------------------------|
B|----------1-----------1-----------1-----------1----|
G|------2-----2-----2-----2-----2-----2-----2-----2--| x2
D|----2---2-------0---0-------0---0-------0---0------|
A|--0-----------2-----------3-----------2------------|
E|---------------------------------------------------|
                                
                                       *** Fades out here (or just strum the chords)
e|---------------------------------------------------------------------------|
B|----------1-----------1-----------1-----------1-----------1-----------1----|
G|------0-----0-----0-----0-----2-----0-----2-----0-----2-----0-----2-----0--|
D|----2---2-------2---2-------0---0-------0---0-------0---0-------0---0------|
A|--3-----------3-----------2-----------2-----------2-----------2------------|
E|---------------------------------------------------------------------------|


[Chorus III]

[3:37 - 3:53]

e|---------------------------------------------------|
B|----------1-----------1-----------1-----------1----|
G|------2-----2-----2-----2-----2-----2-----2-----2--|
D|----2---2-------0---0-------0---0-------0---0------|
A|--0-----------2-----------3-----------2------------|
E|---------------------------------------------------|

e|---------------------------------------------------------------------------|
B|----------1-----------1-----------0-----------0-----------0-----------0----|
G|------0-----0-----0-----0-----0-----0-----0-----0-----0-----0-----0-----0--|
D|----2---2-------2---2-------2---2-------2---2-------2---2-------2---2------|
A|--3-----------3------------------------------------------------------------|
E|--------------------------0-----------0-----------0-----------0------------|

e|---------------------------------------------------|
B|----------1-----------1-----------1-----------1----|
G|------2-----2-----2-----2-----2-----2-----2-----2--| x2 (this repeat includes the part above(middle section)
D|----2---2-------0---0-------0---0-------0---0------|     , couldn't fit them on the same line)
A|--0-----------2-----------3-----------2------------|
E|---------------------------------------------------|


[Outro]

[3:54 - 5:09]

e|-----------------------------------------|
B|-----------------------------------------|
G|-----------------------------------------| x8
D|--------10~-------9~-------7~---------5--|
A|--7-7-7-----7-7-7----7-7-7----7-7-5h7----|
E|-----------------------------------------|

e|--------------------------------------|--------------------------------------|
b|--------------------------------------|--------------------------------------|
g|--------------------------------------|--------------------------------------| x2
d|--------------------------------------|--------------------------------------|
a|-----------5--------------------------|-----------5--------------------------|
E|--5--7--8-----8--7--5--7--3--5--7--3--|--5--7--8-----8--7--5--7--3--1--3--0--|

e|-----|
B|--1--|
G|--2--|
D|--2--|
A|--0--|
E|-----|


************************************

| h  Hammer-on
| ~  Vibrato

************************************

            
            
Suggest correction
Creating personal tab
Creating personal tab
You can edit any tab online and save it as your Personal.

You can edit, replace or remove any tab part or add personal notes – all changes will be seen only by you.

Personal tabs can be accessed anytime from any device, even offline.
Learn more »
comments
print report bad tab
guest
You may want to rate the tab now too:
select rating
Wanna post a correction for this tab? Suggest correction