Oops, an error
Loading. Please wait.

Noro intro tab

version 1
version 1

Intro

Whole song

Interactive

2,292 views 1 this week
3 commentsread comments
1 2 3 4 5
1 last vote to show rating
add to favorites
×
Save as Personal and add changes to this tab that will be seen only by you. Learn more ›
×
You can save this tab as Personal to edit and correct it or add notes. All changes will be seen only by you. Learn more »
launch autoscroll
font size
0
reset
how to read this tab
guitar tuner
edit
Autoscroll
slow
fast
+/-
esc
set tempo
stop
Difficulty
-------------------------------------------------------------------------------
                             Noro - Brand New
-------------------------------------------------------------------------------

tabbed by: dea221

this is the intro to Noro, if anyone knows the rest or correct way to play the 
song then a new tab would be greatly appreciated

Intro
|-15-15-15-14------------------|
|--------------15-17-17-17-12--|
|------------------------------|
|------------------------------|
|------------------------------|
|------------------------------|x2


Main Verse
|-------------------------3------3------3------3------|
|-----5----5----5----5------0------0------0------0----|
|---4----4----4----4----5------5------5------5--------|
|-2----2----2----2------------------------------------|
|-----------------------------------------------------|
|-----------------------------------------------------|



            
            
Suggest correction
Creating personal tab
Creating personal tab
You can edit any tab online and save it as your Personal.

You can edit, replace or remove any tab part or add personal notes – all changes will be seen only by you.

Personal tabs can be accessed anytime from any device, even offline.
Learn more »
Give kudos to tab author, rate the tab!
1 2 3 4 5
comments
print report bad tab
3 comments total.
0 reply
CaptnOats10101 51 Oct 06, 2009 10:33 AM

this is how i play the intro, its pretty spot on!

|---------------------------------------------|
|-----------------0----0-----0----0-----------|
|---9--9--9--9--------------------------------|X alot
|--9--9--9--9---/17---17---17---17------------|
|-7--7--7--7--/15---15---15---15--------------|
|---------------------------------------------|

0 reply
utmbarto 60 Oct 18, 2009 01:05 AM

I second the correction. Good effort though. The riff seems good

0 reply
Oligarky_dude 30 Nov 17, 2009 09:15 AM

i would go for:

|-----0----0----0----0----3------3------3------3------|
|---------------------------0------0------0------0----|
|---4----4----4----4----5------5------5------5--------|
|-2----2----2----2------------------------------------|
|-----------------------------------------------------|
|-----------------------------------------------------|

just because it uses minimal hand movement compared to the two already stated

guest
Wanna post a correction for this tab? Suggest correction