Oops, an error
Loading. Please wait.

Untitled 09 bass

1,185 views 1 this week
no commentswrite comment
1 2 3 4 5
2 more votes to show rating
add to favorites
×
Save as Personal and add changes to this tab that will be seen only by you. Learn more ›
×
You can save this tab as Personal to edit and correct it or add notes. All changes will be seen only by you. Learn more »
launch autoscroll
font size
0
reset
guitar tuner
edit
Autoscroll
slow
fast
+/-
esc
set tempo
stop
Tuned a half step down

Intro

G------------------------------------------------------------------|
D------------------------------------------------------------------|
A------------------------------------------------------------------|
E-/7-7-7-7-7-7-7-7/9-9-9-9-9-9-9-5\3-3-3-3-3-3-3-3-0-0-0-0-0-0-0-0-|

G------------------------------------------------------------------|
D------------------------------------------------------------------|
A------------------------------------------------------------------|
E-/7-7-7-7-7-7-7-7\5-5-5-5-5-5-5-5\3-3-3-3-3-3-3-3-0-0-0-0-0-0-0-0-|

Verse

G------------------------------------------------------------------|
D------------------------------------------------------------------|
A------------------------------------------------------------------|
E-/7-7-7-7-7-7-7-7/9-9-9-9-9-9-9-5\3-3-3-3-3-3-3-3-0-0-0-0-0-0-0-0-|

G------------------------------------------------------------------|
D------------------------------------------------------------------|
A------------------------------------------------------------------|
E-/7-7-7-7-7-7-7-7\5-5-5-5-5-5-5-5\3-3-3-3-3-3-3-3-0-0-0-0-0-0-0-0-|

G------------------------------------------------------------------|
D------------------------------------------------------------------|
A------------------------------------------------------------------|
E-/7-7-7-7-7-7-7-7/9-9-9-9-9-9-9-5\3-3-3-3-3-3-3-3-0-0-0-0-0-0-0-0-|

G------------------------------------------------------------------|
D------------------------------------------------------------------|
A------------------------------------------------------------------|
E-/7-7-7-7-7-7-7-7\5-5-5-5-5-5-5-5-0-0-0-0-0-0-0-0-3-3-3-3-3-3-3-3-|

Pre Verse

G------------------------------------------------------------------|
D------------------------------------------------------------------|
A------------------------------------------------------------------|
E-/7-7-7-7-7-7-7-7/9-9-9-9-9-9-9-5\3-3-3-3-3-3-3-3-0-0-0-0-0-0-0-0-|

G------------------------------------------------------------------|
D------------------------------------------------------------------|
A------------------------------------------------------------------|
E-/7-7-7-7-7-7-7-7\5-5-5-5-5-5-5-5\3-3-3-3-3-3-3-3-0-0-0-0-0-0-0-0-|

Verse

G------------------------------------------------------------------|
D------------------------------------------------------------------|
A------------------------------------------------------------------|
E-/7-7-7-7-7-7-7-7/9-9-9-9-9-9-9-5\3-3-3-3-3-3-3-3-0-0-0-0-0-0-0-0-|

G------------------------------------------------------------------|
D------------------------------------------------------------------|
A------------------------------------------------------------------|
E-/7-7-7-7-7-7-7-7\5-5-5-5-5-5-5-5\3-3-3-3-3-3-3-3-0-0-0-0-0-0-0-0-|

G------------------------------------------------------------------|
D------------------------------------------------------------------|
A------------------------------------------------------------------|
E-/7-7-7-7-7-7-7-7/9-9-9-9-9-9-9-5\3-3-3-3-3-3-3-3-0-0-0-0-0-0-0-0-|

G------------------------------------------------------------------|
D------------------------------------------------------------------|
A------------------------------------------------------------------|
E-/7-7-7-7-7-7-7-7\5-5-5-5-5-5-5-5-0-0-0-0-0-0-0-0-5-5-5-5-5-5-5-5-|

G------------------------------------------------------------------|
D------------------------------------------------------------------|
A------------------------------------------------------------------|
E-/7-7-7-7-7-7-7-7\5-5-5-5-5-5-5- -3-3-3-3-3-3-3-3-3-3-0-0-3-5-3-0-|

Chorus

G------------------------------------------------------------------|
D------------------------------------------------------------------|
A-5-5-5-5-5-5-5-5-5-5-5-5-5-7-7-7-5-5-5-5-5-5-5-5-5-5-5-5-7-9-10-9-|
E------------------------------------------------------------------|

G-----------------------------------------------------------------|
D-----------------------------------------------------------------|
A-4-4-4-4-4-4-4-4-4-4-4-4-4-5-4-0---------------------------------|
E---------------------------------3-3-3-3-3-3-3-3-3-3-0-0-3-5-3-0-|

G-----------------------------------------------------------------|
D-----------------------------------------------------------------|
A-5-5-5-5-5-5-5-5-5-5-5-5-5-7-7-7-5-5-5-5-5-5-5-5-5-5-5-5-5-5-5-5-|
E-----------------------------------------------------------------|

G-----------------------------------------------------------------|
D-----------------------------------------------------------------|
A-4-4-4-4-4-4-4-4-4-4-4-4-4-5-4-0---------------------------------|
E---------------------------------3-3-3-3-3-3-3-3-3-3-0-0-3-5-3-0-|

Pre Verse

G------------------------------------------------------------------|
D------------------------------------------------------------------|
A------------------------------------------------------------------|
E-/7-7-7-7-7-7-7-7/9-9-9-9-9-9-9-5\3-3-3-3-3-3-3-3-0-0-0-0-0-0-0-0-|

G------------------------------------------------------------------|
D------------------------------------------------------------------|
A------------------------------------------------------------------|
E-/7-7-7-7-7-7-7-7\5-5-5-5-5-5-5-5\3-3-3-3-3-3-3-3-0-0-0-0-0-0-0-0-|

Verse

G------------------------------------------------------------------|
D------------------------------------------------------------------|
A------------------------------------------------------------------|
E-/7-7-7-7-7-7-7-7/9-9-9-9-9-9-9-5\3-3-3-3-3-3-3-3-0-0-0-0-0-0-0-0-|

G------------------------------------------------------------------|
D------------------------------------------------------------------|
A------------------------------------------------------------------|
E-/7-7-7-7-7-7-7-7\5-5-5-5-5-5-5-5\3-3-3-3-3-3-3-3-0-0-0-0-0-0-0-0-|

G------------------------------------------------------------------|
D------------------------------------------------------------------|
A------------------------------------------------------------------|
E-/7-7-7-7-7-7-7-7/9-9-9-9-9-9-9-5\3-3-3-3-3-3-3-3-0-0-0-0-0-0-0-0-|

G------------------------------------------------------------------|
D------------------------------------------------------------------|
A------------------------------------------------------------------|
E-/7-7-7-7-7-7-7-7\5-5-5-5-5-5-5-5-0-0-0-0-0-0-0-0-5-5-5-5-5-5-5-5-|

G------------------------------------------------------------------|
D------------------------------------------------------------------|
A------------------------------------------------------------------|
E-/7-7-7-7-7-7-7-7\5-5-5-5-5-5-5-5-3-3-3-3-3-3-3-3-3-3-0-0-3-5-3-0-|

Chorus

G------------------------------------------------------------------|
D------------------------------------------------------------------|
A-5-5-5-5-5-5-5-5-5-5-5-5-5-7-7-7-5-5-5-5-5-5-5-5-5-5-5-5-7-9-10-9-|
E------------------------------------------------------------------|

G-----------------------------------------------------------------|
D-----------------------------------------------------------------|
A-4-4-4-4-4-4-4-4-4-4-4-4-4-5-4-0---------------------------------|
E---------------------------------3-3-3-3-3-3-3-3-3-3-0-0-3-5-3-0-|

G-----------------------------------------------------------------|
D-----------------------------------------------------------------|
A-5-5-5-5-5-5-5-5-5-5-5-5-5-7-7-7-5-5-5-5-5-5-5-5-5-5-5-5-5-5-5-5-|
E-----------------------------------------------------------------|

G-----------------------------------------------------------------|
D-----------------------------------------------------------------|
A-4-4-4-4-4-4-4-4-4-4-4-4-4-5-4-0---------------------------------|
E---------------------------------3-3-3-3-3-3-3-3-3-3-0-0-3-5-3-0-|

Bridge

G-----------------------------------------------------------------|
D-----------------------------------------------------------------|
A-----------------------------------------------------------------|
E-7-7-7-7-7-7-7-7-5-5-5-5-5-5-5-5-7-7-7-7-7-7-7-7-5-5-5-5-5-5-5-5-|

G-----------------------------------------------------------------|
D-----------------------------------------------------------------|
A-----------------------------------------------------------------|
E-7-7-7-7-7-7-7-7-5-5-5-5-5-5-5-5-3-3-3-3-3-3-3-3-0-0-0-0-0-0-0-0-|

Pre Verse

G------------------------------------------------------------------|
D------------------------------------------------------------------|
A------------------------------------------------------------------|
E-/7-7-7-7-7-7-7-7/9-9-9-9-9-9-9-5\3-3-3-3-3-3-3-3-0-0-0-0-0-0-0-0-|

G------------------------------------------------------------------|
D------------------------------------------------------------------|
A------------------------------------------------------------------|
E-/7-7-7-7-7-7-7-7\5-5-5-5-5-5-5-5\3-3-3-3-3-3-3-3-0-0-0-0-0-0-0-0-|

Verse

G------------------------------------------------------------------|
D------------------------------------------------------------------|
A------------------------------------------------------------------|
E-/7-7-7-7-7-7-7-7/9-9-9-9-9-9-9-5\3-3-3-3-3-3-3-3-0-0-0-0-0-0-0-0-|

G------------------------------------------------------------------|
D------------------------------------------------------------------|
A------------------------------------------------------------------|
E-/7-7-7-7-7-7-7-7\5-5-5-5-5-5-5-5-0-0-0-0-0-0-0-0-5-5-5-5-5-5-5-5-|

G------------------------------------------------------------------|
D------------------------------------------------------------------|
A------------------------------------------------------------------|
E-/7-7-7-7-7-7-7-7\5-5-5-5-5-5-5-5-3-3-3-3-3-3-3-3-3-3-0-0-3-5-3-0-|

Chorus

G------------------------------------------------------------------|
D------------------------------------------------------------------|
A-5-5-5-5-5-5-5-5-5-5-5-5-5-7-7-7-5-5-5-5-5-5-5-5-5-5-5-5-7-9-10-9-|
E------------------------------------------------------------------|

G-----------------------------------------------------------------|
D-----------------------------------------------------------------|
A-4-4-4-4-4-4-4-4-4-4-4-4-4-5-4-0---------------------------------|
E---------------------------------3-3-3-3-3-3-3-3-3-3-0-0-3-5-3-0-|

G-----------------------------------------------------------------|
D-----------------------------------------------------------------|
A-5-5-5-5-5-5-5-5-5-5-5-5-5-7-7-7-5-5-5-5-5-5-5-5-5-5-5-5-5-5-5-5-|
E-----------------------------------------------------------------|

G-----------------------------------------------------------------|
D-----------------------------------------------------------------|
A-4-4-4-4-4-4-4-4-4-4-4-4-4-5-4-0---------------------------------|
E---------------------------------3-3-3-3-3-3-3-3-3-3-0-0-3-5-3-0-|

Outro

G-----------------------------------------------------------------|
D-----------------------------------------------------------------|
A-----------------------------------------------------------------|
E-7-7-7-7-7-7-7-7-5-5-5-5-5-5-5-5-7-7-7-7-7-7-7-7-5-5-5-5-5-5-5-5-|

G-----------------------------------------------------------------|
D-----------------------------------------------------------------|
A-----------------------------------------------------------------|
E-7-7-7-7-7-7-7-7-5-5-5-5-5-5-5-5-3-3-3-3-3-3-3-3-0-0-0-0-0-0-0-0-|

G-----------------------------------------------------------------|
D-----------------------------------------------------------------|
A-----------------------------------------------------------------|
E-7-7-7-7-7-7-7-7-7-7-7-7-7-7-7-7-7-7-7-7-7-7-7-7-7-7--7-7--7-7-7-|

            
            
Suggest correction
Creating personal tab
Creating personal tab
You can edit any tab online and save it as your Personal.

You can edit, replace or remove any tab part or add personal notes – all changes will be seen only by you.

Personal tabs can be accessed anytime from any device, even offline.
Learn more »
Give kudos to tab author, rate the tab!
1 2 3 4 5
comments
print report bad tab
guest
You may want to rate the tab now too:
select rating
Wanna post a correction for this tab? Suggest correction