Oops, an error
Loading. Please wait.

You Wont Know bass

version 1
version 1

Whole song

Interactive

9,015 views 3 this week
1 commentread comment
1 2 3 4 5
x 7
add to favorites
×
Save as Personal and add changes to this tab that will be seen only by you. Learn more ›
×
You can save this tab as Personal to edit and correct it or add notes. All changes will be seen only by you. Learn more »
launch autoscroll
font size
0
reset
guitar tuner
edit
Autoscroll
slow
fast
+/-
esc
set tempo
stop
Author
Song:       You Won't Know
Artist:     Brand New
Album:      The Devil And God Are Raging Inside Me
Tuning:     Standard
Tabbed by:  theo2266


Bass comes in @ 1:38

Verse
G|-----------------------------------------------------------------------|
D|-----------------------------------------------------------------------|
A|-7-7-7--7-7-7--6h7-7-7--7/10-10-10-10----------------------------------|
E|--------------------------------------8-8-8--8-8-8--7h8-8-8--8-7-8-10--|

G|--------------------------------------------------------------|
D|--------------------------------------------------------------|
A|-7-7-7--7-7-7--6h7-7-7--7-7-7---------------------------------|
E|------------------------------8-8-8--8-8-8\7h8-8-8/7-8-8\3~---|

G|-----------------7-----------------------------------------------|
D|---------------9---9---------------------------------------------|
A|-7-7-7--7-7-7--------7-7/9\7-7-----------------------------------|
E|-------------------------------8-8-8--8-8-8--7h8-8-8--8-7-8-10---|

Chorus
G|---------------------------------------------------------------|
D|---------------------------------------------------------------|
A|-7-7-7--7-7-7--6h7-7-7--7-7-7----------------------------------|
E|------------------------------8-8-8--8-8-8--7h8-8-8--8-7-8-10--|

G|---------------------------------------------------------------|
D|---------------------------------------------------------------|
A|-7-7-7--7-7-7--6h7-7-7--7-7-7----------------------------------|
E|------------------------------8-8-8--8-8-8--7h8-8-8--8-7-8-10--|

G|-----
D|-----
A|-7~~-
E|-----

Verse
G|-----------------------------------------------------------------------|
D|-----------------------------------------------------------------------|
A|-7-7-7--7-7-7--6h7-7-7--7/10-10-10-10----------------------------------|
E|--------------------------------------8-8-8--8-8-8--7h8-8-8--8-7-8-10--|

G|--------------------------------------------------------------|
D|--------------------------------------------------------------|
A|-7-7-7--7-7-7--6h7-7-7--7-7-7---------------------------------|
E|------------------------------8-8-8--8-8-8\7h8-8-8/7-8-8\3~---|

G|-----------------7-----------------------------------------------|
D|---------------9---9---------------------------------------------|
A|-7-7-7--7-7-7--------7-7/9\7-7-----------------------------------|
E|-------------------------------8-8-8--8-8-8--7h8-8-8--8-7-8-10---|

Chorus
G|---------------------------------------------------------------|
D|---------------------------------------------------------------|
A|-7-7-7--7-7-7--6h7-7-7--7-7-7----------------------------------|
E|------------------------------8-8-8--8-8-8--7h8-8-8--8-7-8-10--|

G|---------------------------------------------------------------|
D|---------------------------------------------------------------|
A|-7-7-7--7-7-7--6h7-7-7--7-7-7----------------------------------|
E|------------------------------8-8-8--8-8-8--7h8-8-8--8-7-8-10--|

Bridge
G|---------------------------------------------------------------------------|
D|---------------------------------------------------------------------------|
A|10-10-10-10/12-12-12-12---------------7-7-7-7-10-10-10-10/12-12-12-12------|
E|-----------------------8-8-8-8-5-5-5-5-------------------------------8-878-|

G|-------------------|
D|-------------------|
A|-7-7-7-7-7-7-7-7---|
E|-------------------|

G|-------------------------------------------|
D|-----------------10-10-10-10---------------|
A|-7-7-7-7-7-7-7-7-------------12-12-12-12---|
E|-------------------------------------------|

Rest until 3:46

Bridge Pt 2 (X2)
G|-------------------------------------------------------------------------|
D|-------------------9-9-9-------------------------------------------------|
A|-7-7-7-7-7-7-7-7-7-------10-10-7-7-10------------------------------------|
E|--------------------------------------8-8-8-8-8-5-5-5-8-8-8-8-5-7-8-10---|

After this, theres no bass for the rest of the song

You could play the guitar riff if your bored:
G|-9-9-12-11-9-9-11h12-9-9-12-11-9-9-11h12p11---|
D|----------------------------------------------|
A|----------------------------------------------|
E|----------------------------------------------|

G|-------12-11-------11h12-------12-11-------11h12p11---|
D|-10-10-------10-10-------10-10-------10-10------------|
A|------------------------------------------------------|
E|------------------------------------------------------|

(/) Slide Up  () Slide Down  (h) Hammer On  (p) Pull Off

            
            
Suggest correction
Creating personal tab
Creating personal tab
You can edit any tab online and save it as your Personal.

You can edit, replace or remove any tab part or add personal notes – all changes will be seen only by you.

Personal tabs can be accessed anytime from any device, even offline.
Learn more »
comments
print report bad tab
1 comment total.
0 reply
roolandermusic 10 Oct 07, 2015 08:12 PM

the 6 on the 5th string should be a 5, other than that high five!

guest
You may want to rate the tab now too:
select rating
Wanna post a correction for this tab? Suggest correction