Oops, an error
Loading. Please wait.

You Wont Know tab

version 1
version 1

Whole song

Interactive

52,688 views 45 this week
5 commentsread comments
1 2 3 4 5
x 9
add to favorites
×
Save as Personal and add changes to this tab that will be seen only by you. Learn more ›
×
You can save this tab as Personal to edit and correct it or add notes. All changes will be seen only by you. Learn more »
launch autoscroll
font size
0
reset
how to read this tab
guitar tuner
edit
Autoscroll
slow
fast
+/-
esc
set tempo
stop
Author
Tuning: Dropped half a step
 
(Guitar 1)
e|--------------------------------------------|
B|--------9p8-------8h9-------9p8-------8h9p8-|
G|--10-10-----10-10-----10-10-----10-10-------|
D|--------------------------------------------|
A|--------------------------------------------|
E|--------------------------------------------|
                                              (x9)
e|--------------------------------------------|
B|--------9p8-------8h9-------9p8-------8h9p8-|
G|--------------------------------------------|  
D|--11-11-----11-11-----11-11-----11-11-------|
A|--------------------------------------------|
E|--------------------------------------------|

(Guitar 2)
e|------------------------------------------------------------------|
B|------------------------------------------------------------------|
G|-1010101010101010101010101010101010-6-6-6-6-6-6-6-6-6-6-6-6-6-6-6-|
D|-1010101010101010101010101010101010-6-6-6-6-6-6-6-6-6-6-6-6-6-6-6-|(x6)
A|-8-8-8-8-8-8-8-8-8-8-8-8-8-8-8-8-8--4-4-4-4-4-4-4-4-4-4-4-4-4-4-4-|
E|------------------------------------------------------------------|

(Guitar 1) 
(comes in 4th time)
e|--------------------------------------------|
B|--------9p8-------8h9-------9p8-------8h9p8-|
G|--10-10-----10-10-----10-10-----10-10-------|
D|--------------------------------------------|
A|--------------------------------------------|
E|--------------------------------------------|
                                               (x2)
e|--------------------------------------------|
B|--------9p8-------8h9-------9p8-------8h9p8-|
G|--------------------------------------------|
D|--11-11-----11-11-----11-11-----11-11-------|
A|--------------------------------------------|
E|--------------------------------------------|

(Guitar 2)
e|------------------------------------------------------------------|
B|------------------------------------------------------------------|
G|-1010101010101010101010101010101010-6-6-6-6-6-6-6-6-6-6-6-6-6-6-6-|
D|-1010101010101010101010101010101010-6-6-6-6-6-6-6-6-6-6-6-6-6-6-6-|(x6)
A|-8-8-8-8-8-8-8-8-8-8-8-8-8-8-8-8-8-—4-4-4-4-4-4-4-4-4-4-4-4-4-4-4-|
E|------------------------------------------------------------------|

(Guitar 1) 
(comes in 4th time)
e|--------------------------------------------|
B|--------9p8-------8h9-------9p8-------8h9p8-|
G|--10-10-----10-10-----10-10-----10-10-------|
D|--------------------------------------------|
A|--------------------------------------------|
E|--------------------------------------------|
                                                (x2)
e|--------------------------------------------|
B|--------9p8-------8h9-------9p8-------8h9p8-|
G|--------------------------------------------|
D|--11-11-----11-11-----11-11-----11-11-------|
A|--------------------------------------------|
E|--------------------------------------------|

(Guitar 2)            (Guitar 1)
e|------------------|-|----|
B|------------------|-|----|
G|------------------|-|-8b-|
D|-3333333333333333-|-|----|
A|-3333333333333333-|-|----|
E|-1111111111111111-|-|----|

(Guitar 2)
e|------------------|
B|------------------|
G|------------------|
D|-3333333333333333-|
A|-3333333333333333-|
E|-1111111111111111-|

(Guitar 2)
e|-----------------------|
B|-----------------------|
G|-----10-10-10-10---10--|
D|-----10-10-10-10---10--|(x4)
A|-8-8-8-----------8-8---|
E|-----------------------|

(Guitar 2)
e|---------------------------------------------------------------|
B|-1-1------------1-1--------------------------------------------|
G|-----1-1------------1-1--------------1-1------------1-1--------|
D|---------3-3--3---------3-3--3---3-3-----3-3-3--3-3-----3-3--3-|(x2)
A|---------------------------------------------------------------|
E|---------------------------------------------------------------|

(Guitar 1) 
(comes in second time)
e|---------------------------------------------|
B|-13-13-----------------13-13-----------------|
G|-------13-13-----------------13-13-----------|
D|-------------15-15--15------------15-15--15--|
A|---------------------------------------------|
E|---------------------------------------------|

e|---------------------------------------------|
B|---------------------------------------------|
G|-------13-13------------------13-13----------|
D|-15-15-------15-15--15--15-15-------15-15--15|
A|---------------------------------------------|
E|---------------------------------------------|

(Guitar 1)
e|--------------------------------------------|
B|--------9p8-------8h9-------9p8-------8h9p8-|
G|--10-10-----10-10-----10-10-----10-10-------|
D|--------------------------------------------|
A|--------------------------------------------|
E|--------------------------------------------|
                                                  (x9)
e|--------------------------------------------|
B|--------9p8-------8h9-------9p8-------8h9p8-|
G|--------------------------------------------|  
D|--11-11-----11-11-----11-11-----11-11-------|
A|--------------------------------------------|
E|--------------------------------------------|


************************************

| h  Hammer-on
| p  Pull-off
| b  Bend

************************************

            
            
Suggest correction
Creating personal tab
Creating personal tab
You can edit any tab online and save it as your Personal.

You can edit, replace or remove any tab part or add personal notes – all changes will be seen only by you.

Personal tabs can be accessed anytime from any device, even offline.
Learn more »
comments
print report bad tab
5 comments total. Showing first comments.
0 reply
Covin 30 Jan 22, 2007 08:54 PM

Uh, this song is right for the most part, but they went to Standard Tuning for most (if not all) of this album. Just fyi

-1 reply
mental_absence 67 Jan 30, 2007 10:12 AM

true

0 reply
mental_absence 67 Jan 30, 2007 10:16 AM

also, are u sure in the chrous it doesnt go

e
b
g 9999999999999 12 12 12 55555555555555
d 9999999999999 12 12 12 55555555555555
a 7777777777777 10 10 10 33333333333333
e

maybe its just the bass that does that, but im not sure.
im tabbing it on GP as I speak so ill post that up this week.

guest
You may want to rate the tab now too:
select rating
Wanna post a correction for this tab? Suggest correction