Oops, an error
Loading. Please wait.

Courage And Control chords

version 2
version 2

Whole song

2,827 views 1 this week
1 commentread comment
1 2 3 4 5
3 more votes to show rating
add to favorites
×
Save as Personal and add changes to this tab that will be seen only by you. Learn more ›
×
You can save this tab as Personal to edit and correct it or add notes. All changes will be seen only by you. Learn more »
launch autoscroll
font size
0
reset
transpose
0
reset
display chords
guitar tuner
edit
Autoscroll
slow
fast
+/-
esc
set tempo
stop
Strumming
There is no strumming pattern for this song yet. and get +5 IQ
-----------------------------------------------------------------------------
                             Courage and Control - Brandon Boyd
-----------------------------------------------------------------------------
Tabbed by: Pablo
Email:pablothefantasic@gmail.com

**Tuning: Eb (half step down or tune down to D and capo at 1st fret**
[Those who have this in standard tuning need to play along with the CD]

**When I play the chorus solo I add the piano parts by playing the 8th, 7th and 
9th in that order while strumming Ab and F. Sounds harder than it is.



There are three chords in this whole song… strum to match

Verse and Chorus are virtually the same:

eb|----0--------------------------------------------------------------------|
Bb|----2--------------------------------------------------------------------|
Gb|----2--------------------------------------------------------------------|
Db|----2------------------------4-------------------------------------------|
Ab|----0------------------------4-------------------------------------------|
Eb|-----------------------------2-------------------------------------------|

V: The Boulevard is bustling, a vast and wrinkled muscling
C:    …hair down,         …permission  


eb|---0----------------------------------------------------------0----------|
Bb|---0----------------------------------------------------------0----------|
Gb|---x----------------------------------------------------------x----------|
Db|---2-----------------------------------------------4-----7----2----------|
Ab|---2-----------------------------------------------4-----7----2----------|
Eb|---0-----------------------------------------------2-----5----0----------|

V: Is pulled over my eyes and I know I don't belong…
C: control              but you start by letting go… 

Bridge:

eb|----0---------------0----------------------------------------------------|
Bb|----0---------------0----------------------------------------------------|
Gb|----x---------------x----------------------------------------------------|
Db|----2-----4---------2----------4-----------------------------------------|
Ab|----2-----4---------2----------4-----------------------------------------|
Eb|----0-----2---------0----------2-----------------------------------------|

B:       Oh    I think    I feel    I see… 

eb|---------------------0---------------------------------------------------|
Bb|---------------------0---------------------------------------------------|
Gb|---------------------x---------------------------------------------------|
Db|-------4-------------2---------------------------------------------------|
Ab|-------4-------------2---------------------------------------------------|
Eb|-------2-------------0---------------------------------------------------|

B: He who asks…    receives...

            
            
Suggest correction
Creating personal tab
Creating personal tab
You can edit any tab online and save it as your Personal.

You can edit, replace or remove any tab part or add personal notes – all changes will be seen only by you.

Personal tabs can be accessed anytime from any device, even offline.
Learn more »
Give kudos to tab author, rate the tab!
1 2 3 4 5
comments
print report bad tab
1 comment total.
0 reply
Chocolate71 74 Apr 02, 2011 11:19 AM

Thanks for posting this tab! It's quite accurate, only I think the chords in the bridge should be like this:

Bridge:

eb|----------0--------------------0-------------|
Bb|----------0--------------------0-------------|
Gb|----------x---------4----------x-------------|
Db|----4-----2---------4----------2-------------|
Ab|----4-----2---------2----------2-------------|
Eb|----2-----0--------------------0-------------|

And I also have the idea that Brandon does something when he's playing the A-chord in the chorus, but I don't know what yet.

Cheers!

guest
Wanna post a correction for this tab? Suggest correction