Oops, an error
Loading. Please wait.

Playing With Fire bass

1,613 views 1 this week
4 commentsread comments
1 2 3 4 5
x 4
add to favorites
×
Save as Personal and add changes to this tab that will be seen only by you. Learn more ›
×
You can save this tab as Personal to edit and correct it or add notes. All changes will be seen only by you. Learn more »
launch autoscroll
font size
0
reset
guitar tuner
edit
Autoscroll
slow
fast
+/-
esc
set tempo
stop
Author
Difficulty
Brandon Flowers - Playing with fire
Listen to the bass line to get the timing down
Rawrformybassguitar 

Tuning: EADG (standard)
Starts at: 0:28
G|---------99--------99--------55---------55--------77--------77-----------------------|
D|-------79--------79--------35--------35---------57--------57---------77--------99----|
A|-777777----777777----333333----333333-----555555----555555---------57--------79------|
E|-------------------------------------------------------------555555----777777--------|(2x)

G|-------------------------------------------------------------------------------------|
D|-------------------------------------------------------------------------------------|
A|777777777777777777-333333333333333333-555555555555555555-----------------------------|
E|--------------------------------------------------------55555555-77777777------------|(4x)


G|------------------------------------------------------------------------------------|
D|------------------------------------------------------------------------------------|
A|777777777777777777-333333333333333333-55555555--------------------------------------|
E|----------------------------------------------33333333-55555555-77777777------------|(1x)

G|-------------------------------------------------------------------------------------|
D|-------------------------------------------------------------------------------------|
A|777777777777777777-333333333333333333-555555555555555555-----------------------------|
E|--------------------------------------------------------55555555-77777777------------|(1x)

G|---------------------------------------------------------------------------------------------|
D|-------------------------------------------------------------------------------------12121212|
A|-5555555555555555-7777777777777777-33333333--------33333333--------555555555555555555--------|
E|-------------------------------------------33333333--------33333333--------------------------| 
(12 = twelve )

G|----------------------------------------------------------|
D|----------------------------------------------12121212----|
A|-33333333--------33333333--------555555555555-------------|
E|---------33333333--------33333333-------------------------|
(12 = twelve)

G|---------------------------------------------------------------------------|
D|---------------------------------------------------------------------------|
A|-33333333--------33333333--------77777777--------5555555555555555----------|
E|---------33333333--------33333333--------77777777--------------------------|

G|-------------------------------------------------------------------------------------|
D|-------------------------------------------------------------------------------------|
A|777777777777777777-333333333333333333-555555555555555555-----------------------------|
E|--------------------------------------------------------55555555-77777777------------|(5x)

G|------------|
D|------------|
A|-7~~--------|
E|------------|

Enjoy!
Please comment and rate!
Greets Rawrformybassguitar

            
            
Suggest correction
Creating personal tab
Creating personal tab
You can edit any tab online and save it as your Personal.

You can edit, replace or remove any tab part or add personal notes – all changes will be seen only by you.

Personal tabs can be accessed anytime from any device, even offline.
Learn more »
comments
print report bad tab
4 comments total. Showing first comments.
0 reply
steefje99 52 Sep 22, 2010 11:13 AM

G|---------99--------99--------55---------55--------77--------77-----------------------|
D|-------79--------79--------35--------35---------57--------57---------77--------99----|
A|-777777----777777----333333----333333-----555555----555555---------57--------79------|
E|-------------------------------------------------------------555555----777777--------|(2x)

G|-------------------------------------------------------------------------------------|
D|-------------------------------------------------------------------------------------|
A|777777777777777777-333333333333333333-555555555555555555-----------------------------|
E|--------------------------------------------------------55555555-77777777------------|(4x)

G|------------------------------------------------------------------------------------|
D|------------------------------------------------------------------------------------|
A|777777777777777777-333333333333333333-55555555--------------------------------------|
E|----------------------------------------------33333333-55555555-77777777------------|(1x)

|---------99--------99--------55---------55--------77--------77-----------------------|
D|-------79--------79--------35--------35---------57--------57---------77--------99----|
A|-777777----777777----333333----333333-----555555----555555---------57--------79------|
E|-------------------------------------------------------------555555----777777--------|

G|---------------------------------------------------------------------------------------------|
D|-------------------------------------------------------------------------------------12121212|
A|-5555555555555555-7777777777777777-33333333--------33333333--------555555555555555555--------|
E|-------------------------------------------33333333--------33333333--------------------------|
(12 = twelve )

G|----------------------------------------------------------|
D|----------------------------------------------12121212----|
A|-33333333--------33333333--------555555555555-------------|
E|---------33333333--------33333333-------------------------|
(12 = twelve)

G|---------------------------------------------------------------------------|
D|---------------------------------------------------------------------------|
A|-33333333--------33333333--------77777777--------5555555555555555----------|
E|---------33333333--------33333333--------77777777--------------------------|

G|-------------------------------------------------------------------------------------|
D|-------------------------------------------------------------------------------------|
A|777777777777777777-333333333333333333-555555555555555555-----------------------------|
E|--------------------------------------------------------55555555-77777777------------|(5x)

G|------------|
D|------------|
A|-7~~--------|
E|------------|

0 reply
Rawrformybass 62 Sep 22, 2010 11:19 AM

G|---------99--------99--------55---------55--------77--------77-----------------------|
D|-------79--------79--------35--------35---------57--------57---------77--------99----|
A|-777777----777777----333333----333333-----555555----555555---------57--------79------|
E|-------------------------------------------------------------555555----777777--------|

Indeed, this one repeats later in the song.

0 reply
HumanBrightside 40 Sep 28, 2010 08:39 AM

Hi Raw, could you add part of the lyrics to the begining section of each line of the tab so that I know when to come in with the bass, thanks.

guest
You may want to rate the tab now too:
select rating
Wanna post a correction for this tab? Suggest correction