Oops, an error
Loading. Please wait.

Heart Still Beats intro tab

version 1
version 1

Intro

Whole song

810 views 1 this week
2 commentsread comments
1 2 3 4 5
x 4
add to favorites
×
Save as Personal and add changes to this tab that will be seen only by you. Learn more ›
×
You can save this tab as Personal to edit and correct it or add notes. All changes will be seen only by you. Learn more »
launch autoscroll
font size
0
reset
how to read this tab
guitar tuner
edit
Autoscroll
slow
fast
+/-
esc
set tempo
stop
-------------------------------------------------------------------------------
                             Heart still beats - Brave saint saturn
-------------------------------------------------------------------------------
Tabbed by:Rather_dashing
Email: evan@fuzzychipmunk.com

Tuning:standard

e|------------------------------------------------------------|
B|------------------------------------------------------------|
G|------------------------------------------------------------|
D|-------------7-------------7-----4--------------------------|
A|---------5-------------5------------------------------------|
E|------7-------------0---------------------------------------|


            
            
Suggest correction
Creating personal tab
Creating personal tab
You can edit any tab online and save it as your Personal.

You can edit, replace or remove any tab part or add personal notes – all changes will be seen only by you.

Personal tabs can be accessed anytime from any device, even offline.
Learn more »
comments
print report bad tab
2 comments total.
0 reply
Newsboys6 10 Dec 01, 2008 04:08 PM

where is the rest of the song?????!?!!??

0 reply
donthavealife?? 174 Jun 14, 2009 11:48 AM

i believe the intro is actually this:
e|------5---------5--------|
B|----3-------3-----3------|
G|--4-------0--------------|
D|-------------------------|
A|-------------------------|
E|-------------------------|

the second time, the second guitar does something like this:
e|--------------------------------|
B|--------------------------------|
G|------4--4b5-5-5--5-5--5-4------|
D|--------------------------------|
A|--2---2--2b3-3-3--3-3--3-2------|
E|--------------------------------|

ill try to tab the rest of the song soon and post it.

guest
You may want to rate the tab now too:
select rating
Wanna post a correction for this tab? Suggest correction