Oops, an error
Loading. Please wait.

These Frail Hands tab

618 views 1 this week
no commentswrite comment
1 2 3 4 5
1 last vote to show rating
add to favorites
×
Save as Personal and add changes to this tab that will be seen only by you. Learn more ›
×
You can save this tab as Personal to edit and correct it or add notes. All changes will be seen only by you. Learn more »
launch autoscroll
font size
0
reset
how to read this tab
guitar tuner
edit
Autoscroll
slow
fast
+/-
esc
set tempo
stop
Artist: brave Saint Saturn
Song:These Frail Hands
-standard tuned


intro and verses one and two

(this includes "in this broken place..." "and i am overwhelmed..." "when the 
and "darkness can't percieve the light..." ) all those portions. there is no playing during "hold 
hold tight" but i like to tap the guitar in beat during that part, it sounds nice.

e|------------------------------|
 |---3--3--3--3--3--3--3--3-----|
 |------------------------------|
 |-0--0--4--4--5--5--5--5-------|
 |------------------------------|
E|------------------------------|

during the chorus

(i hope i got these right, but it sounds nice anyways) includes "may this not prevail.." 
"light of the world, your love..."  may need to improv a strum pattern.

e|-----------------------------------|
 |-----------------------------------|
 |-66--44--2222----------------------|
 |-66--44--2222----------------------|
 |-44--22--0000----------------------|
E|-----------------------------------|

corrections are welcome =)

            
            
Suggest correction
Creating personal tab
Creating personal tab
You can edit any tab online and save it as your Personal.

You can edit, replace or remove any tab part or add personal notes – all changes will be seen only by you.

Personal tabs can be accessed anytime from any device, even offline.
Learn more »
Give kudos to tab author, rate the tab!
1 2 3 4 5
comments
print report bad tab
guest
Wanna post a correction for this tab? Suggest correction