Oops, an error
Loading. Please wait.

Godforsaken tab

159 views 1 this week
no commentswrite comment
1 2 3 4 5
3 more votes to show rating
add to favorites
×
Save as Personal and add changes to this tab that will be seen only by you. Learn more ›
×
You can save this tab as Personal to edit and correct it or add notes. All changes will be seen only by you. Learn more »
launch autoscroll
font size
0
reset
how to read this tab
guitar tuner
edit
Autoscroll
slow
fast
+/-
esc
set tempo
stop
Author
-----------------------------------------------------------------------------
		    Godforsaken - by Brazen Abbot
-----------------------------------------------------------------------------
Tabbed by: Andy (yalaki)
Email: yalaki@hotmail.com

Tuning: D

******
Intro:
******

RHYTHM GUITAR:
		
For the first four lines i prefer to leave out the D string

d|--------------------------------------------------------------------------|
A|--------------------------------------------------------------------------|
F|--------------------------------------------------------------------------|
C|--4-4-4-6-4---6---4---4-7-----4-4-4-6-4---4-------------------------------|
G|--4-4-4-4-4---6---4---4-7-----4-4-4-4-4---4-------------------------------|
D|--2-2-2-2-2-2-4-2-2-2-2-5-----2-2-2-2-2-2-2-------------------------------|

d|--------------------------------------------------------------------------|
A|--------------------------------------------------------------------------|
F|--------------------------------------------------------------------------|
C|--4-4-4-6-4---6---4---4-7-----4-4-4-6-4---4-------------------------------|
G|--4-4-4-4-4---6---4---4-7-----4-4-4-4-4---4-------------------------------|
D|--2-2-2-2-2-2-4-2-2-2-2-5-----2-2-2-2-2-2-2-------------------------------|

d|--------------------------------------------------------------------------|
A|--------------------------------------------------------------------------|
F|--4-4-4-6-4---6---4---4-7-----4-4-4-6-4---4-------------------------------|
C|--4-4-4-4-4---6---4---4-7-----4-4-4-4-4---4---------7---------------------|
G|--2-2-2-2-2-2-4-2-2-2-2-5-----2-2-2-2-2-2-2---------7---------------------|
D|----------------------------------------------------5---------------------|

d|--------------------------------------------------------------------------|
A|--------------------------------------------------------------------------|
F|--------------------------------------------------------------------------|
C|--4-4-4-6-4---6---4---4-7-----4-4-4-6-4---4----------x\-------------------|
G|--4-4-4-4-4---6---4---4-7-----4-4-4-4-4---4----------x\-------------------|
D|--2-2-2-2-2-2-4-2-2-2-2-5-----2-2-2-2-2-2-2----------x\-------------------|


d|--------------------------------------------------------------------------|
A|o-------------------------------------------------------------------------|
F|--------------------------------------------------------------------------|
C|--4-4---7---9----4-4---7---6----4-4---7---9-------2---4-2-----------------|
G|o-4-4---7---9----4-4---7---6----4-4---7---9---2-4---4-----2---------------|
D|--2-2---5---7----2-2---5---4----2-2---5---7-----------------2-------------|
					      
d|--------------------------------------------------------------------------|
A|-------------------------------------------------------------------------o|
F|--------------------------------------------------------------------------|
C|--4-4---7---9----4-4---7---6----9-9-9-9---7-7-7-7---2-2-2-----------------|
G|--4-4---7---9----4-4---7---6----7-7-7-7---5-5-5-5---0-0-0----------------o|
D|--2-2---5---7----2-2---5---4----7-7-7-7---5-5-5-5---0-0-0-----------------|

********
Verse 1:
********

"I don't hear a single word you say..."
"Years of battering my soul around..."

d|--------------------------------------------------------------------------|
A|o-------------------------------------------------------------------------|
F|--------------------------------------------------------------------------|
C|--4-4---7---9----4-4---7---6----4-4---7---9-------2---4-2-----------------|
G|o-4-4---7---9----4-4---7---6----4-4---7---9---2-4---4-----2---------------|
D|--2-2---5---7----2-2---5---4----2-2---5---7-----------------2-------------|

d|--------------------------------------------------------------------------|
A|-------------------------------------------------------------------------o|
F|--------------------------------------------------------------------------|
C|--4-4---7---9----4-4---7---6----9-9-9-9---7-7-7-7---2-2-2-----------------|
G|--4-4---7---9----4-4---7---6----7-7-7-7---5-5-5-5---0-0-0----------------o|
D|--2-2---5---7----2-2---5---4----7-7-7-7---5-5-5-5---0-0-0-----------------|

"You had your life to live..."

d|--------------------------------------------------------------------------|
A|--------------------------------------------------------------------------|
F|---2-4----4----2-4----4-----2-4----4----2-4-------------------------------|
C|---2-4----4----2-4----4-----2-4----4----2-4--4-2--------------------------|
G|---0-2----2----0-2----2-----0-2----2----0-2--2-0-2-0----------------------|
D|-----------------------------------------------------2-0------------------|

"While I was breaking down..."

this is roughly what the piano plays here - I can't make out the guitar
itself (i guess it plays something like E5 palm muted as above)
d|--------------------------------------------------------------------------|
A|--------------------------------------------------------------------------|
F|--------------------------------------------------------------------------|
C|-4--5-2-------2---------------------4--5-2-------2------------------------|
G|---------4h5----2-4-5-2----------------------5-----2-4-5------------------|
D|------------------------3-2------------------------------3----------------|

"Don't even try to pretend..."

d|--------------------------------------------------------------------------|
A|--------------------------------------------------------------------------|
F|---2-4----4----2-4----4-----2-4----4----2-4---4---------------------------|
C|---2-4----4----2-4----4-----2-4----4----2-4---4---------------------------|
G|---0-2----2----0-2----2-----0-2----2----0-2---2---------------------------|
D|--------------------------------------------------------------------------|

"You want me around..."

d|--------------------------------------------------------------------------|
A|--------------------------------------------------------------------------|
F|--2-----------------------------------------------------------------------|
C|--2--------------------2--------------------------------------------------|
G|--0--------------------2--------------------------------------------------|
D|-----------------------0--------------------------------------------------|

*******
Chorus:
*******

"'Cos I don't care, I dont, anymore..."

d|--------------------------------------------------------------------------|
A|o------------------------------------------------------------------------o|
F|--------------------------------------------------------------------------|
C|---7---4-----2---4----7---9--9-----7---4-----2---4----9---7--4------------|
G|o--7---4-----2---4----7---9--9-----7---4-----2---4----9---7--4-----------o|
D|---5---2-----0---2----5---7--7-----5---2-----0---2----7---5--2------------|

Under brief guitar solo:

d|--------------------------------------------------------------------------|
A|--------------------------------------------------------------------------|
F|--------------------------------------------------------------------------|
C|--4-4---7---9----4-4---7---6----4-4---7---9-------2---4-2-----------------|
G|--4-4---7---9----4-4---7---6----4-4---7---9---2-4---4-----2---------------|
D|--2-2---5---7----2-2---5---4----2-2---5---7-----------------2-------------|

d|--------------------------------------------------------------------------|
A|--------------------------------------------------------------------------|
F|--------------------------------------------------------------------------|
C|--4-4---7---9----4-4---7---6----9-9-9-9---7-7-7-7---2-2-2-----------------|
G|--4-4---7---9----4-4---7---6----7-7-7-7---5-5-5-5---0-0-0-----------------|
D|--2-2---5---7----2-2---5---4----7-7-7-7---5-5-5-5---0-0-0-----------------|


********
Verse 2:
********

"I don't knwo what planet you've been on..."
"If you don't like the way I am then shove it..."

d|--------------------------------------------------------------------------|
A|o-------------------------------------------------------------------------|
F|--------------------------------------------------------------------------|
C|--4-4---7---9----4-4---7---6----4-4---7---9-------2---4-2-----------------|
G|o-4-4---7---9----4-4---7---6----4-4---7---9---2-4---4-----2---------------|
D|--2-2---5---7----2-2---5---4----2-2---5---7-----------------2-------------|

d|--------------------------------------------------------------------------|
A|-------------------------------------------------------------------------o|
F|--------------------------------------------------------------------------|
C|--4-4---7---9----4-4---7---6----9-9-9-9---7-7-7-7---2-2-2-----------------|
G|--4-4---7---9----4-4---7---6----7-7-7-7---5-5-5-5---0-0-0----------------o|
D|--2-2---5---7----2-2---5---4----7-7-7-7---5-5-5-5---0-0-0-----------------|

"I found out who I am..."

d|--------------------------------------------------------------------------|
A|--------------------------------------------------------------------------|
F|---2-4----4----2-4----4-----2-4----4----2-4-------------------------------|
C|---2-4----4----2-4----4-----2-4----4----2-4--4-2--------------------------|
G|---0-2----2----0-2----2-----0-2----2----0-2--2-0-2-0----------------------|
D|-----------------------------------------------------2-0------------------|

"While you were somewhere else..."

this is roughly what the piano plays here - I can't make out the guitar
itself (i guess it plays something like E5 palm muted as above)
d|--------------------------------------------------------------------------|
A|--------------------------------------------------------------------------|
F|--------------------------------------------------------------------------|
C|-4--5-2-------2---------------------4--5-2-------2------------------------|
G|---------4h5----2-4-5-2----------------------5-----2-4-5------------------|
D|------------------------3-2------------------------------3----------------|

"No I don't have a plan..."

d|--------------------------------------------------------------------------|
A|--------------------------------------------------------------------------|
F|---2-4----4----2-4----4-----2-4----4----2-4---4---------------------------|
C|---2-4----4----2-4----4-----2-4----4----2-4---4---------------------------|
G|---0-2----2----0-2----2-----0-2----2----0-2---2---------------------------|
D|--------------------------------------------------------------------------|

"Just savin' myself..."

d|--------------------------------------------------------------------------|
A|--------------------------------------------------------------------------|
F|--2-----------------------------------------------------------------------|
C|--2--------------------2--------------------------------------------------|
G|--0--------------------2--------------------------------------------------|
D|-----------------------0--------------------------------------------------|

*******
Chorus:
*******

"'Cos I don't care, I dont, anymore..."

d|--------------------------------------------------------------------------|
A|o------------------------------------------------------------------------o|
F|--------------------------------------------------------------------------|
C|---7---4-----2---4----7---9--9-----7---4-----2---4----9---7--4------------|
G|o--7---4-----2---4----7---9--9-----7---4-----2---4----9---7--4-----------o|
D|---5---2-----0---2----5---7--7-----5---2-----0---2----7---5--2------------|


******
Solos:
******

Under first guitar solo:

d|--------------------------------------------------------------------------|
A|--------------------------------------------------------------------------|
F|--------------------------------------------------------------------------|
C|---6--7-4-------4------------------6--7-4-------4-------------------------|
G|------------7-----4-6-7-4-------------------7-----4-6-7-------------------|
D|--------------------------5-4---------------------------5---4-------------|

d|--------------------------------------------------------------------------|
A|--------------------------------------------------------------------------|
F|--------------------------------------------------------9-8---------------|
C|---6--7-4-------4------------------6--7-4-------4-6-7-9-------------------|
G|------------7-----4-6-7-4-------------------7-----------------------------|
D|--------------------------5-4---------------------------------------------|

    hold chord throughout this line
d|--------------------------------------------------------------------------|
A|--------------------------------------------------------------------------|
F|--9------------9-----------9-----------9----------------------------------|
C|--9------------7-----------9-----------7----------------------------------|
G|--7------------------------7----------------------------------------------|
D|--0------------------------0----------------------------------------------|

d|--------------------------------------------------------------------------|
A|--------------------------------------------------------------------------|
F|--------------------------------------------------------------------------|
C|---7------------------------7---------------------------------------------|
G|---7------------------------7---------------------------------------------|
D|---5------------------------5---------------------------------------------|

Under piano solo:

this isn't accurate... but it may give you an idea what to play (ie focus on
the three fifth chords)
								play 3 times
d|--------------------------------------------------------------------------|
A|o------------------------------------------------------------------------o|
F|--------------------------------------------------------------------------|
C|--3-------------3-------------3-3--7-------------7-------7-----7----------|
G|o-3-------------3-------------3-3--7-------------7-------7-7-7-7---------o|
D|--1-1-1-1-1-1-1-1-1-1-1-1-1-1-1-1--5-5-5-5-5-5-5-5-5-5-5-5-7-7-5----------|

d|--------------------------------------------------------------------------|
A|--------------------------------------------------------------------------|
F|--------------------------------------------------------------------------|
C|--2-----------------------------------------------------------------------|
G|------5---4---2-----------------------------------------------------------|
D|-----------------5---3---2---0--------------------------------------------|

Under guitar second solo:

d|--------------------------------------------------------------------------|
A|--------------------------------------------------------------------------|
F|------------------------------------------------2-------------------------|
C|--7/9---9-----9-9-7/9---9-----9-9-7\4---4-------2-------------------------|
G|--5/7-7-7-7-7-7-7-5/7-7-7-7-7-7-7-5\2-2-2-2-0---0----------0--------------|
D|----------------------------------------------3--------------3-0----------|

d|--------------------------------------------------------------------------|
A|--------------------------------------------------------------------------|
F|------------------------------------------------2-------------------------|
C|--7/9---9-----9-9-7/9---9-----9-9-7\4---4-------2-------------------------|
G|--5/7-7-7-7-7-7-7-5/7-7-7-7-7-7-7-5\2-2-2-2-0---0-------------------------|
D|----------------------------------------------3---------------------------|

"I can't rely on you, I don't believe in you, I don't care..."

While Tony sings this just play G5 (x022xx) pedalling on the open G string.
At the end of this phrase play a D#5 (133xxx) then a F5 (x0012x)

*******
Bridge:
*******



d|--------------------------------------------------------------------------|
A|--------------------------------------------------------------------------|
F|--------------------------------------------------------------------------|
C|--4-4-4-6-4---6---4---4-7-----4-4-4-6-4---4-------------------------------|
G|--4-4-4-4-4---6---4---4-7-----4-4-4-4-4---4-------------------------------|
D|--2-2-2-2-2-2-4-2-2-2-2-5-----2-2-2-2-2-2-2-------------------------------|

d|--------------------------------------------------------------------------|
A|--------------------------------------------------------------------------|
F|--------------------------------------------------------------------------|
C|--4-4-4-6-4---6---4---4-7-----4-4-4-6-4---4-------------------------------|
G|--4-4-4-4-4---6---4---4-7-----4-4-4-4-4---4-------------------------------|
D|--2-2-2-2-2-2-4-2-2-2-2-5-----2-2-2-2-2-2-2-------------------------------|

"Don't even try to pretend..."

d|--------------------------------------------------------------------------|
A|--------------------------------------------------------------------------|
F|---2-4----4----2-4----4-----2-4----4----2-4---4---------------------------|
C|---2-4----4----2-4----4-----2-4----4----2-4---4---------------------------|
G|---0-2----2----0-2----2-----0-2----2----0-2---2---------------------------|
D|--------------------------------------------------------------------------|

"This is the end..."

d|--------------------------------------------------------------------------|
A|--------------------------------------------------------------------------|
F|--2-----------------------------------------------------------------------|
C|--2--------------------2--------------------------------------------------|
G|--0--------------------2--------------------------------------------------|
D|-----------------------0--------------------------------------------------|

*******
Chorus:
*******

"'Cos I don't care, I dont, anymore..."
								Play 4 times
d|--------------------------------------------------------------------------|
A|o------------------------------------------------------------------------o|
F|--------------------------------------------------------------------------|
C|---7---4-----2---4----7---9--9-----7---4-----2---4----9---7--4------------|
G|o--7---4-----2---4----7---9--9-----7---4-----2---4----9---7--4-----------o|
D|---5---2-----0---2----5---7--7-----5---2-----0---2----7---5--2------------|

"I don't care, I don't..."

d|--------------------------------------------------------------------------|
A|--------------------------------------------------------------------------|
F|--------------------------------------------------------------------------|
C|--4-4---7---9----4-4---7---6----4-4---7---9-------2---4-2-----------------|
G|--4-4---7---9----4-4---7---6----4-4---7---9---2-4---4-----2---------------|
D|--2-2---5---7----2-2---5---4----2-2---5---7-----------------2-------------|

"Godforsaken..."

d|--------------------------------------------------------------------------|
A|--------------------------------------------------------------------------|
F|--------------------------------------------------------------------------|
C|--4-4---7---9----4-4---7---6----9-9-9-9---7-7-7-7---2-2-2-----------------|
G|--4-4---7---9----4-4---7---6----7-7-7-7---5-5-5-5---0-0-0-----------------|
D|--2-2---5---7----2-2---5---4----7-7-7-7---5-5-5-5---0-0-0-----------------|

"I don't care, I don't..."

d|--------------------------------------------------------------------------|
A|--------------------------------------------------------------------------|
F|--------------------------------------------------------------------------|
C|--4-4---7---9----4-4---7---6----4-4---7---9-------2---4-2-----------------|
G|--4-4---7---9----4-4---7---6----4-4---7---9---2-4---4-----2---------------|
D|--2-2---5---7----2-2---5---4----2-2---5---7-----------------2-------------|

"Godforsaken..."

d|--------------------------------------------------------------------------|
A|--------------------------------------------------------------------------|
F|--------------------------------------------------------------------------|
C|--4-4---7---9----4-4---7---6----9-9-9-9---7-7-7-7---2-2-2-----------------|
G|--4-4---7---9----4-4---7---6----7-7-7-7---5-5-5-5---0-0-0-----------------|
D|--2-2---5---7----2-2---5---4----7-7-7-7---5-5-5-5---0-0-0-----------------|

d|--------------------------------------------------------------------------|
A|--------------------------------------------------------------------------|
F|--------------------------------------------------------------------------|
C|--9-9-9-9---7-7-7-7---2-2-2--------9-9-9-9---7-7-7-7---2-2-2--------------|
G|--7-7-7-7---5-5-5-5---0-0-0--------7-7-7-7---5-5-5-5---0-0-0--------------|
D|--7-7-7-7---5-5-5-5---0-0-0--------7-7-7-7---5-5-5-5---0-0-0--------------|

d|--------------------------------------------------------------------------|
A|--------------------------------------------------------------------------|
F|--------2-----------------------------------------------------------------|
C|----------4-2---4---------------------------------------------------------|
G|--0-2-4-------4-4---------------------------------------------------------|
D|----------------2---------------------------------------------------------|



| /  slide up
| \  slide down
| h  hammer-on
| p  pull-off
| ~  vibrato
| +  harmonic
| x  Mute note
| b  Bend note
| r  Release bend
| pb Prebend note
===============================================================================

            
            
Suggest correction
Creating personal tab
Creating personal tab
You can edit any tab online and save it as your Personal.

You can edit, replace or remove any tab part or add personal notes – all changes will be seen only by you.

Personal tabs can be accessed anytime from any device, even offline.
Learn more »
Give kudos to tab author, rate the tab!
1 2 3 4 5
comments
print report bad tab
guest
You may want to rate the tab now too:
select rating
Wanna post a correction for this tab? Suggest correction