Oops, an error
Loading. Please wait.

It Dont Matter To Me chords

version 6
version 6

Whole song

by Bread
226 views 33 this week
no commentswrite comment
1 2 3 4 5
2 more votes to show rating
add to favorites
×
Save as Personal and add changes to this tab that will be seen only by you. Learn more ›
×
You can save this tab as Personal to edit and correct it or add notes. All changes will be seen only by you. Learn more »
launch autoscroll
font size
0
reset
transpose
0
reset
simplify chords
display chords
guitar tuner
edit
Autoscroll
slow
fast
+/-
esc
set tempo
stop
Author
Difficulty
About this tab version
Includes the verses and the solo. Was this info helpful? Yes No
Strumming
There is no strumming pattern for this song yet. and get +5 IQ
[Verse 1]
D                
It don't matter to me
A/C#
If you really feel that
 C                       
You need sometime to be free
 Gm                        D
Time to go out searching for yourself
    G      A     D            F
Hoping to find time to go to find

[Verse 2]
D
It don't matter to me
A/C#                     C
If you take up with someone who's better than me
  Gm                      D
'Cause your happiness is all I want
     G      A     D                  F
For you to find peace your peace of mind

[Bridge]
 Cmaj7              Fmaj7
Lotta people have an ego hang-up
                   Cmaj7       Fmaj7
'Cause they want to be the only one
Cmaj7                   Fmaj7
How many came before it really doesn't matter
        Cmaj7              Fmaj7
Just as long as you're the last
  Dmaj7           Gmaj7
Everybody's moving on and try to find out
       Dmaj7               Gmaj7    
What's been missing in the past

[Verse 3]
 D                
And it don't matter to me
A/C#
If your searching brings you
 C 
back together with me
  Gm              A
'Cause there'll always be
    D            G         A
An empty room waiting for you
    D             G        A
An open heart waiting for you
 D             F   A
Time is on my side
                  D  
'cause it don't matter to me

[Solo]
                                             it don't matter to me
e|-------------------------------------------------3-3-3-3-3-3--2------|
B|------7----------3--5b-6-5-----------------------3-3-3-3-3-3--3------|
G|-------------0h2-----------7p5-7-----------------3-3-5-3-2-0--2------|
D|--5/7----------------------------------------------------------------|
A|---------------------------------------------------------------------|
E|---------------------------------------------------------------------|

it don't matter to me
e|-----------------------------------12-10-8---------|
B|------------------2-3--2-3-5-7/8-----------8\6-----|
G|--------------2-4----------------------------------|
D|---------------------------------------------------|
A|---------------------------------------------------|
E|---------------------------------------------------|
              it dont matter to me
e|---------------------------------------------------|
B|----------------------------------8p7h8------------|
G|---------------------------------------------------|
D|---------------------------------------------------|
A|---------------------------------------------------|
E|---------------------------------------------------|

[Outro]
  Gm7
'cause there'll always be
     D          A           G
An empty room waiting for you
     D          A            G
An open heart waiting for you
D              F  A D
Time is on my side


************************************

| b  Bend
| h  Hammer-on
| p  Pull-off
| /  Slide up
| \  Slide down

************************************

            
            
Suggest correction
Creating personal tab
Creating personal tab
You can edit any tab online and save it as your Personal.

You can edit, replace or remove any tab part or add personal notes – all changes will be seen only by you.

Personal tabs can be accessed anytime from any device, even offline.
Learn more »
Give kudos to tab author, rate the tab!
1 2 3 4 5
comments
print report bad tab
guest
You may want to rate the tab now too:
select rating
Wanna post a correction for this tab? Suggest correction