Oops, an error
Loading. Please wait.
We have an official Ashes Of Eden tab made by UG professional guitarists. Check out the tab »
×
7,363 views 90 this week
1 commentread comment
1 2 3 4 5
x 21
add to favorites
×
Save as Personal and add changes to this tab that will be seen only by you. Learn more ›
×
You can save this tab as Personal to edit and correct it or add notes. All changes will be seen only by you. Learn more »
launch autoscroll
font size
0
reset
how to read this tab
guitar tuner
edit
Autoscroll
slow
fast
+/-
esc
set tempo
stop
Tabbed by SoarStaraptor
Breaking Benjamin - Ashes of Eden 'Tab'
Since there isn't a really good tab version, I'll just decide to make it. Here ya go!
CLEAN effect throughout the whole song.
Tuning: Drop C

[Intro]
D|-----------------------------------------------------------------------|
A|---------10---------------10----------------10---------------10----8---|
F|-----10---------------10---------------10----------------10------------|
C|-----------------------------------------------------------------------| x2
G|-----------------------------------8-----------------------------------|
C|-0----------------8----------------------------------10----------------|

[Verse]
D|-----------------------------------------------------------------------|
A|---------10---------------10----------------10---------------10----8---|
F|-----10---------------10---------------10----------------10------------|
C|-----------------------------------------------------------------------| x2
G|-----------------------------------8-----------------------------------|
C|-0----------------8----------------------------------10----------------|
 (Will the faithful..)
  (Anybody calling..)


[Pre-Chorus]
D|-----------------------------------------------------------------------|
A|---------10---------------10----------------10---------------10--------|
F|-----10---------------10---------------10----------------10------------|
C|-----------------------------------------------------------------------| x2
G|-----------------------------------------------------------------------|
C|-0----------------10---------------8-----------------8-------------10--|
  Are you with me..                                 Why can't I..

[Chorus]
D|-----------------------------------------------------------------------|
A|---------10---------------10----------------10---------------11---10---|
F|-----10---------------10---------------10----------------10------------|
C|-----------------------------------------------------------------------| x2
G|-8---------------------------------------------------------------------|
C|------------------10---------------0-----------------8-----------------|
          Stay with me, don't let me go..

[Post-Chorus]
D|-----------------------------------------------------------------------|
A|---------10---------------10----------------10---------------10----8---|
F|-----10---------------10---------------10----------------10------------|
C|-----------------------------------------------------------------------| x2
G|-----------------------------------8-----------------------------------|
C|-0----------------8----------------------------------10----------------|

[Verse 2]
D|-----------------------------------------------------------------------|
A|---------10---------------10----------------10---------------10----8---|
F|-----10---------------10---------------10----------------10------------|
C|-----------------------------------------------------------------------| x2
G|-----------------------------------8-----------------------------------|
C|-0----------------8----------------------------------10----------------|
  Will the darkness fall upon me..
  I can hear the voices haunting..

[Pre-Chorus 2]
D|-----------------------------------------------------------------------|
A|---------10---------------10----------------10---------------10--------|
F|-----10---------------10---------------10----------------10------------|
C|-----------------------------------------------------------------------| x2
G|-----------------------------------------------------------------------|
C|-0----------------10---------------8-----------------8-------------10--|
  Are you with me..                                 Why can't I..

[Chorus 2]
D|-----------------------------------------------------------------------|
A|---------10---------------10----------------10---------------11---10---|
F|-----10---------------10---------------10----------------10------------|
C|-----------------------------------------------------------------------| x2
G|-8---------------------------------------------------------------------|
C|------------------10---------------0-----------------8-----------------|
          Stay with me, don't let me go..

[Bridge/Instrumental]
D|-----------------------------------------------------------------------|
A|---------10---------------10----------------10---------------10--------|
F|-----10---------------10---------------10----------------10------------|
C|-----------------------------------------------------------------------| x4
G|-----------------------------------------------------------------------|
C|-0----------------10---------------8-----------------8-------------10--|

[Chorus 3]
D|-----------------------------------------------------------------------|
A|---------10---------------10----------------10---------------11---10---|
F|-----10---------------10---------------10----------------10------------|
C|-----------------------------------------------------------------------| x4
G|-8---------------------------------------------------------------------|
C|------------------10---------------0-----------------8-----------------|
(Stay with me, don't let me go..)
(Heaven above me, take my hand..)

[Outro]
D|---|
A|---|
F|---|
C|---| One note, that is all!
G|-8-|
C|---|

            
            
Suggest correction
Creating personal tab
Creating personal tab
You can edit any tab online and save it as your Personal.

You can edit, replace or remove any tab part or add personal notes – all changes will be seen only by you.

Personal tabs can be accessed anytime from any device, even offline.
Learn more »
comments
print report bad tab
1 comment total.
0 reply
KC1294 10 Oct 23, 2015 10:11 PM

Thank you!

guest
You may want to rate the tab now too:
select rating
Wanna post a correction for this tab? Suggest correction