Oops, an error
Loading. Please wait.
We have an official Diary Of Jane tab made by UG professional guitarists. Check out the tab »
×
13,397 views 6 this week
7 commentsread comments
1 2 3 4 5
x 10
add to favorites
×
Save as Personal and add changes to this tab that will be seen only by you. Learn more ›
×
You can save this tab as Personal to edit and correct it or add notes. All changes will be seen only by you. Learn more »
launch autoscroll
font size
0
reset
guitar tuner
backing track
0:00
0:00
edit
Autoscroll
slow
fast
+/-
esc
set tempo
stop
I took counterfeit031's version of this song and couldn't get myself to liking the 
so i touched up the tuning and redid the song in a more standard tuning: Drop D. I think you 
find this much easier to tune to and it is a very good song so have fun.

Symbols

x | Mute Note
/ | Slide Up
\ | Slide Down
* | Let Ring
p | pull-off
h | hammer-on

-------------------------------------------------------------------------
                             Diary Of Jane
-------------------------------------------------------------------------


Intro
G||-------------|--------------|------------|-----------|
d||-------------|--------------|------------|-----------|
A||-------------|--------------|--------12*-|-----------|
D||0*-----------|--------------|14-15-------|-----------|

G||-------------|--------------|------------|-----------|
d||-------------|--------------|------------|-----------|
A||-------------|--------------|-3p0--------|-----------|
D||0--0---5p0---|-0--7h5--0-0--|------0-0---|-8p0-3h2---| x3

G||-------------|--------------|------------|
d||-------------|--------------|------------|
A||-------------|--------------|--12-12-12-x|
D||0--0---5p0---|-0--7h5--0----|------------|

Verse
G||------------------|----------------------|-------------|
d||------------------|----------------------|-------------|
A||------------------|----------------------|----------12*|
D||-0-0--0--0-0--0-0-|-0-0--00-0-0-0-0--0-0-|-5*---00-----| x2

Chorus 1
G||--------|-----------|-----------|-----------|
d||---0-0-0|-----------|-----------|-----------|
A||--------|-----------|-4-4-4-4-4-|-----------|
D||0-0-----|-4-4-4-4-4-|-----------|-6-6-6-6-6-|

Fill 1
G||--------------|----------------|
d||--------------|----------------|
A||--------------|----------------|
D||4-4-4-4-4-4-4-|6-6-6-6-6-6-6-6-|

Pre Verse
G||-------------|--------------|------------|-----------|
d||-------------|--------------|------------|-----------|
A||-------------|--------------|-3p0--------|-----------|
D||0--0---5p0---|-0--7h5--0-0--|------0-----|-8p0-3h2---|

G||-------------|--------------|------------|
d||-------------|--------------|------------|
A||-------------|--------------|--12-12-12-x|
D||0--0---5p0---|-0--7h5--0-0--|------------|

Verse Var.
G||------------------|----------------------|-------------|
d||------------------|----------------------|-------------|
A||------------------|----------------------|----------12*|
D||-0-0--0--0-0--0-0-|-0-0--00-0-0-0-0--0-0-|-5*---00-----|

G||------------------|----------------------|-------------|
d||------------------|----------------------|-------------|
A||------------------|----------------------|-------12-12x|
D||-0-0--0--0-0--0-0-|-0-0--00-0-0-0-0--0-0-|-5*----------|

Chorus 2
Play Chorus 1 x2

Fill 2
G||-------------|-------------|
d||-------------|-------------|
A||-------------|-------------|
D||-4444-4444-44|-6666-6666-66|

Bridge
G||----------------------|------------------------|------------------------|
d||----------------------|------------------------|------------------------|
A||----------------------|------------------------|------------------------|
D||-0-0-0-000-000-0-0-5/7|-0-0--0-000-000-0-0-5/7-|-0-0--0-000-000-0-0-5/7-|

G||----------------------|---------------------|------------------------|
D||----------------------|---------------------|------------------------|
A||----------------------|-4-4-4-4-4-6-6-6-6-6-|------------------------|
D||-00-0-0-8-7-0-5-7-3-2-|---------------------|-0-0--0-000-000-0-0-5/7-|

G||------------------------|-------------------------|
d||------------------------|-------------------------|
A||------------------------|-4-4-4-4-4-6-6-9-9-7-----|
D||-0-0--0-000-000-0-0-5/7-|---------------------3\2-|


Chorus 3

Play Chorus 1 x 2

Outro

G||-------------|--------------|------------|-----------|
d||-------------|--------------|------------|-----------|
A||-------------|--------------|-3p0--------|-----------|
D||0--0---5p0---|-0--7h5--0-0--|------0-0---|-8p0-3h2---| x3

G||-------------|--------------|---------------|
d||-------------|--------------|---------------|
A||-------------|--------------|--12-12-12-x---|
D||0--0---5p0---|-0--7h5--0----|-------------0*|

            
            
Suggest correction
Creating personal tab
Creating personal tab
You can edit any tab online and save it as your Personal.

You can edit, replace or remove any tab part or add personal notes – all changes will be seen only by you.

Personal tabs can be accessed anytime from any device, even offline.
Learn more »
comments
print report bad tab
7 comments total. Showing first comments.
0 reply
STeven on bass! 10 Jan 19, 2007 06:04 PM

i like your style.. that a very clever idea and by the way have you changed some stuff in it because i think its better

0 reply
BassistOath 304 Jan 23, 2007 07:36 AM

thanx for the rate man!

0 reply
MetalBassist93 345 Jan 31, 2007 11:17 AM

nice work! everything seems good to me. *5 stars* :)

guest
You may want to rate the tab now too:
select rating
Wanna post a correction for this tab? Suggest correction