Oops, an error
Loading. Please wait.
We have an official Diary Of Jane tab made by UG professional guitarists. Check out the tab »
×
17,640 views 1 this week
16 commentsread comments
1 2 3 4 5
x 12
add to favorites
×
Save as Personal and add changes to this tab that will be seen only by you. Learn more ›
×
You can save this tab as Personal to edit and correct it or add notes. All changes will be seen only by you. Learn more »
launch autoscroll
font size
0
reset
guitar tuner
backing track
0:00
0:00
edit
Autoscroll
slow
fast
+/-
esc
set tempo
stop
----------------------------------------------------------------------------
                    THE DIARY OF JANE - Breaking Benjamin
----------------------------------------------------------------------------

Tabbed By: Samuel Mobbs
Email: bogan_bassist@hotmail.com

Tuning: Drop A# (A# E A D G)

Intro

G |-----------------|------------------|
D |-----------------|------------------|
A |-----------------|------------------|
E |-----------------|------------------|
A#|-----------------|------------------|

G |-----------------|------------------|----------------|----------------|
D |-----------------|------------------|----------------|----------------|
A |-----------------|------------------|----------------|----------------|
E |-----------------|------------------|----------------|----------------|
A#|12~--------------|----------14--15--|8~--------------|----------------|

G |------------------------------------------------|------------------------------------------------|
D |------------------------------------------------|------------------------------------------------|
A |------------------------------------------------|------------------------------------------------|
E |------------------------------------------------|------------------------------------------------|
A#|12-12-12-12-12-12-12-12-12-12-12-12-12-12-15-14-|12-12-12-12-12-12-12-12-12-12-12-12-12-12-12-12-|

G |------------------------------------------------|------------------------------------------------|
D |------------------------------------------------|------------------------------------------------|
A |------------------------------------------------|------------------------------------------------|
E |------------------------------------------------|------------------------------------------------|
A#|12-12-12-12-12-12-12-12-12-12-12-12-12-12-15-14-|12-12-12-12-12-12-12-12-8--------8--------8-----|

Pre-Verse / Outro

G |--------------------------------|--------------------------------|
D |--------------------------------|--------------------------------|
A |--------------------------------|--------------------------------|
E |--------------------------------|--------------------------------|
A#|0---3-0-0-5-0-0-7-5-0-8-0-0-3-2-|0-0-3-0-0-5-0-0-7-5-0-8-0-0-3-2-|

G |--------------------------------|--------------------------------|
D |--------------------------------|--------------------------------|
A |--------------------------------|--------------------------------|
E |--------------------------------|--------------------------------|
A#|0-0-3-0-0-5-0-0-7-5-0-8-0-0-3-2-|0-0-3-0-0-5-0-0-8-----8-----8---|

Verse X 2

G |--------------------------------|--------------------------------|--------------------------------|
D |--------------------------------|--------------------------------|--------------------------------|
A |--------------------------------|--------------------------------|--------------------------------|
E |--------------------------------|--------------------------------|--------------------------------|
A#|0-0-------0-----0-0-----0-0-----|0-0-------000-0-0-0-----0-0-----|5~--------------8-----8~--------|

Chorus

G |--------------------------------|---------------------------------|--------------------------------|
D |--------------------------------|---------------------------------|--------------------------------|
A |--------------------------------|---------------------------------|--------------------------------|
E |--------------------------------|---------------------------------|--------------------------------|
A#|0----0-0--12---12-12--12-12--14-|8-----8-8---8-----8-8---10-8---7-|3-----3-3---3-----3-3---3-3---3-|

G |--------------------------------|--------------------------------|--------------------------------|
D |--------------------------------|--------------------------------|--------------------------------|
A |--------------------------------|--------------------------------|--------------------------------|
E |--------------------------------|--------------------------------|--------------------------------|
A#|10--10-10--10--10-10--10-10--10-|8-8-8-8-8-8-8-8-8-8-8-8-8-8-8-8-|10101010101010101010101010101010|

Pre-Verse

G |--------------------------------|--------------------------------|
D |--------------------------------|--------------------------------|
A |--------------------------------|--------------------------------|
E |--------------------------------|--------------------------------|
A#|0---3-0-0-5-0-0-7-5-0-8-0-0-3-2-|0-0-3-0-0-5-0-0-8-----8-----8---|

Verse x 2

G |--------------------------------|--------------------------------|--------------------------------|
D |--------------------------------|--------------------------------|--------------------------------|
A |--------------------------------|--------------------------------|--------------------------------|
E |--------------------------------|--------------------------------|--------------------------------|
A#|0-0-------0-----0-0-----0-0-----|0-0-------000-0-0-0-----0-0-----|5~--------------8-----8~--------|

Chorus

G |--------------------------------|---------------------------------|--------------------------------|
D |--------------------------------|---------------------------------|--------------------------------|
A |--------------------------------|---------------------------------|--------------------------------|
E |--------------------------------|---------------------------------|--------------------------------|
A#|0----0-0--12---12-12--12-12--14-|8-----8-8---8-----8-8---10-8---7-|3-----3-3---3-----3-3---3-3---3-|

G |--------------------------------|--------------------------------|--------------------------------|
D |--------------------------------|--------------------------------|--------------------------------|
A |--------------------------------|--------------------------------|--------------------------------|
E |--------------------------------|--------------------------------|--------------------------------|
A#|10--10-10--10--10-10--10-10--10-|0----0-0--12---12-12--12-12--14-|8-----8-8---8-----8-8---8-8---7-|

G |--------------------------------|--------------------------------|
D |--------------------------------|--------------------------------|
A |--------------------------------|--------------------------------|
E |--------------------------------|--------------------------------|
A#|3-----3-3---3-----3-3---3-3---3-|10--10-10--10--10-10--10-10--10-|

G |--------------------------------|--------------------------------|
D |--------------------------------|--------------------------------|
A |--------------------------------|--------------------------------|
E |--------------------------------|--------------------------------|
A#|8-8-8-8-----8-8-8-8-----8-8-----|10101010----10101010----1010----|

Breakdown

G |--------------------------------|--------------------------------|--------------------------------|
D |--------------------------------|--------------------------------|--------------------------------|
A |--------------------------------|--------------------------------|--------------------------------|
E |--------------------------------|--------------------------------|--------------------------------|
A#|0-0---0---000-----000---0-0-5-7-|0-0---0---000-----000-0-0-0-5-7-|0-0---0---000-----000---0-0-5-7-|

G |--------------------------------|--------------------------------|--------------------------------|
D |--------------------------------|--------------------------------|--------------------------------|
A |--------------------------------|--------------------------------|--------------------------------|
E |--------------------------------|--------------------------------|--------------------------------|
A#|0-0---0---000---8-7-0-5-7-0-3-2-|3-------3-----3---3-----3---3---|5-------5-----5---5-----5---5---|

G |--------------------------------|--------------------------------|
D |--------------------------------|--------------------------------|
A |--------------------------------|--------------------------------|
E |--------------------------------|--------------------------------|
A#|0-0---0---000-----000---0-0-5-7-|0-0---0---000-----000-0-0-0-5-7-|

G |--------------------------------|--------------------------------|
D |--------------------------------|--------------------------------|
A |--------------------------------|--------------------------------|
E |--------------------------------|--------------------------------|
A#|3-------3-----3---3-----3---3---|5-------5-----5---5-----8-7-3-2-|

Final Chorus

G |--------------------------------|---------------------------------|--------------------------------|
D |--------------------------------|---------------------------------|--------------------------------|
A |--------------------------------|---------------------------------|--------------------------------|
E |--------------------------------|---------------------------------|--------------------------------|
A#|0----0-0--12---12-12--12-12--14-|8-----8-8---8-----8-8---10-8---7-|3-----3-3---3-----3-3---3-3---3-|

G |--------------------------------|--------------------------------|---------------------------------|
D |--------------------------------|--------------------------------|---------------------------------|
A |--------------------------------|--------------------------------|---------------------------------|
E |--------------------------------|--------------------------------|---------------------------------|
A#|10--10-10--10--10-10--10-10--10-|0----0-0--12---12-12--12-12--14-|8-----8-8---8-----8-8---10-8---7-|

G |--------------------------------|--------------------------------|
D |--------------------------------|--------------------------------|
A |--------------------------------|--------------------------------|
E |--------------------------------|--------------------------------|
A#|3-----3-3---3-----3-3---3-3---3-|10--10-10--10--10-10--10-10--10-|

Pre-Verse / Outro

G |--------------------------------|--------------------------------|--------------------------------|
D |--------------------------------|--------------------------------|--------------------------------|
A |--------------------------------|--------------------------------|--------------------------------|
E |--------------------------------|--------------------------------|--------------------------------|
A#|0---3-0-0-5-0-0-7-5-0-8-0-0-3-2-|0-0-3-0-0-5-0-0-7-5-0-8-0-0-3-2-|0-0-3-0-0-5-0-0-7-5-0-8-0-0-3-2-|

G |--------------------------------|--------------------------------|--------------------------------|
D |--------------------------------|--------------------------------|--------------------------------|
A |--------------------------------|--------------------------------|--------------------------------|
E |--------------------------------|--------------------------------|--------------------------------|
A#|0-0-3-0-0-5-0-0-8-----8-----8---|0~------------------------------|--------------------------------|

There was already a Diary of Jane tab out there, but I thought one was needed for a 5 
Plus there
were a few missing fills and the timing was a little out, etc. Anyways, great song and 
=)

Questions, comments, corrections? E-mail me at bogan_bassist@hotmail.com

| /  slide up
| \  slide down
| h  hammer-on
| p  pull-off
| ~  hold note
| +  harmonic
| x  mute note
============================================================================

            
            
Suggest correction
Creating personal tab
Creating personal tab
You can edit any tab online and save it as your Personal.

You can edit, replace or remove any tab part or add personal notes – all changes will be seen only by you.

Personal tabs can be accessed anytime from any device, even offline.
Learn more »
comments
print report bad tab
16 comments total. Showing first comments.
0 reply
U B the band 3,023 Feb 26, 2007 05:11 AM

Good Job! 5 stars!

0 reply
Aussie_Bassist 567 Feb 27, 2007 01:23 AM

Thanks man, it's always nice to hear feedback from viewers. I really worked hard on this one and I'm pretty sure it's damn near perfect, so seeing 5 stars really helps :)

0 reply
__Ronnie__ 1,009 May 17, 2007 01:16 PM

A video of Mark playing the intro to this song was just posted on YouTube. This tab is it! 5 stars. Here's his video:

http://www.youtube.com/watch?v=Q77aPIDQs-0

guest
You may want to rate the tab now too:
select rating
Wanna post a correction for this tab? Suggest correction