Oops, an error
Loading. Please wait.
We have an official Diary Of Jane tab made by UG professional guitarists. Check out the tab »
×
4,518 views 1 this week
no commentswrite comment
1 2 3 4 5
x 3
add to favorites
×
Save as Personal and add changes to this tab that will be seen only by you. Learn more ›
×
You can save this tab as Personal to edit and correct it or add notes. All changes will be seen only by you. Learn more »
launch autoscroll
font size
0
reset
guitar tuner
backing track
0:00
0:00
edit
Autoscroll
slow
fast
+/-
esc
set tempo
stop
Difficulty
intermediate
Artist: Breaking Benjamin
Song: Diary of Jane

Tuning 5 String Bass A# E A D G
Tabbed By John Reckless



Intro

G |-----------------|------------------|
D |-----------------|------------------|
A |-----------------|------------------|
E |-----------------|------------------|
A#|-----------------|------------------|

G |-----------------|------------------|----------------|----------------|
D |-----------------|------------------|----------------|----------------|
A |1----------------|(1)-------3---4---|----------------|----------------|
E |-----------------|------------------|2---------------|(2)-------------|
A#|--~--------------|------------------|----------------|----------------|

G |------------------------------------------------|------------------------------------------------|
D |------------------------------------------------|------------------------------------------------|
A |1-1-1-1-1-1-1-1-1-1-1-1-1-1-1-1-1-1-1-1-1-1-3-4-|1-1-1-1-1-1-1-1-1-1-1-1-1-1-1-1-1-1-1-1-1-1-3-4-|
E |------------------------------------------------|------------------------------------------------|
A#|------------------------------------------------|------------------------------------------------|

G |------------------------------------------------|------------------------------------------------|
D |------------------------------------------------|------------------------------------------------|
A |1-1-1-1-1-1-1-1-1-1-1-1-1-1-1-1-1-1-1-1-1-1-3-4-|1-1-1-1-2-3-1-1-1-1-1-1-------------------------|
E |------------------------------------------------|------------------------2--------2--------2-----|
A#|------------------------------------------------|------------------------------------------------|

Pre-Verse / Outro

G |--------------------------------|--------------------------------|
D |--------------------------------|--------------------------------|
A |--------------------------------|--------------------------------|
E |----------------4---------------|----------------4---------------|
A#|0-0-5p0-0-7p5-0---0-0-8-0-0-3-2-|0-0-5p0-0-7p5-0---0-0-8-0-0-3-2-|

G |--------------------------------|--------------------------------|
D |--------------------------------|--------------------------------|
A |--------------------------------|--------------------------------|
E |----------------4---------------|----------------2-----2-----2---|
A#|0-0-5p0-0-7p5-0---0-0-8-0-0-3-2-|0-0-5p0-0-7p5-0-----------------|

Verse X 2

G |--------------------------------|--------------------------------|--------------------------------|
D |--------------------------------|--------------------------------|--------------------------------|
A |--------------------------------|--------------------------------|--------------------------------|
E |--------------------------------|--------------------------------|----------------------------2---|
A#|0-0-------0-----0-0-----0-0-----|0-0-------000-0-0-0-----0-0-----|5~----------------0---0~--------|

Chorus

G |--------------------------------|--------------------------------|--------------------------------|
D |--------------------------------|--------------------------------|--------------------------------|
A |-----------1----1--1--1--1---3--|--------------------------------|--------------------------------|
E |--------------------------------|2-----2-2---2-----2-2---4--2--1-|--------------------------------|
A#|0----0-0------------------------|--------------------------------|3-----3-3---3-----3-3---3-3---3-|

G |--------------------------------|--------------------------------|--------------------------------|
D |--------------------------------|--------------------------------|--------------------------------|
A |--------------------------------|--------------------------------|--------------------------------|
E |-4---4--4---4---4--4---4--4---4-|2-2-2-2-2-2-2-2-2-2-2-2-2-2-2-2-|4-4-4-4-4-4-4-4-4-4-4-4-4-4-4-4-|
A#|--------------------------------|--------------------------------|--------------------------------|

Pre-Verse

G |--------------------------------|--------------------------------|
D |--------------------------------|--------------------------------|
A |--------------------------------|--------------------------------|
E |----------------4---------------|----------------2-----2-----2---|
A#|0-0-5p0-0-7p5-0---0-0-8-0-0-3-2-|0-0-5p0-0-7p5-0-----------------|


Verse 

G |--------------------------------|--------------------------------|--------------------------------|
D |--------------------------------|--------------------------------|--------------------------------|
A |--------------------------------|--------------------------------|--------------------------------|
E |--------------------------------|--------------------------------|---------------------------2----|
A#|0-0-------0-----0-0-----0-0-----|0-0-------000-0-0-0-----0-0-----|5~---------------0---0----------|

G |--------------------------------|--------------------------------|--------------------------------|
D |--------------------------------|--------------------------------|--------------------------------|
A |--------------------------------|--------------------------------|--------------------------------|
E |--------------------------------|--------------------------------|---------------------------2--2-|
A#|0-0-------0-----0-0-----0-0-----|0-0-------000-0-0-0-----0-0-----|5~---------------0---0----------|


Chorus

G |--------------------------------|--------------------------------|--------------------------------|
D |--------------------------------|--------------------------------|--------------------------------|
A |-----------1----1--1--1--1---3--|--------------------------------|--------------------------------|
E |--------------------------------|2-----2-2---2-----2-2---4--2--1-|--------------------------------|
A#|0----0-0------------------------|--------------------------------|3-----3-3---3-----3-3---3-3---3-|

G |--------------------------------|--------------------------------|--------------------------------|
D |--------------------------------|--------------------------------|--------------------------------|
A |--------------------------------|-----------1----1--1---1--1---3-|--------------------------------|
E |-4---4--4---4---4--4---4--4---4-|--------------------------------|2-----2-2---2-----2-2---2-2---3-|
A#|--------------------------------|0----0-0------------------------|--------------------------------|

G |--------------------------------|--------------------------------|
D |--------------------------------|--------------------------------|
A |--------------------------------|--------------------------------|
E |--------------------------------|-4---4--4---4---4--4---4--4---4-|
A#|3-----3-3---3-----3-3---3-3---3-|--------------------------------|

G |--------------------------------|--------------------------------|
D |--------------------------------|--------------------------------|
A |--------------------------------|--------------------------------|
E |2-2-2-2-----2-2-2-2-----2-2-----|4-4-4-4-----4-4-4-4-----4-4-----|
A#|--------------------------------|--------------------------------|

Bridge

G |--------------------------------|--------------------------------|--------------------------------|
D |--------------------------------|--------------------------------|--------------------------------|
A |--------------------------------|--------------------------------|--------------------------------|
E |--------------------------------|--------------------------------|--------------------------------|
A#|0-0---0---000-----000---0-0-5-7-|0-0---0---000-----000-0-0-0-5-7-|0-0---0---000-----000---0-0-5-7-|

G |--------------------------------|--------------------------------|--------------------------------|
D |--------------------------------|--------------------------------|--------------------------------|
A |--------------------------------|--------------------------------|--------------------------------|
E |--------------------------------|--------------------------------|--------------------------------|
A#|0-0---0---000---8-7-0-5-7-0-3-2-|3-------3-----3---3-----3---3---|5-------5-----5---5-----5---5---|

G |--------------------------------|--------------------------------|
D |--------------------------------|--------------------------------|
A |--------------------------------|--------------------------------|
E |--------------------------------|--------------------------------|
A#|0-0---0---000-----000---0-0-5-7-|0-0---0---000-----000-0-0-0-5-7-|

G |--------------------------------|--------------------------------|
D |--------------------------------|--------------------------------|
A |--------------------------------|--------------------------------|
E |--------------------------------|--------------------------------|
A#|3-------3-----3---3-----3---3---|5-------5-----5---5-----8-7-3-2-|





Final Chorus

G |--------------------------------|--------------------------------|--------------------------------|
D |--------------------------------|--------------------------------|--------------------------------|
A |-----------1----1--1--1--1---3--|--------------------------------|--------------------------------|
E |--------------------------------|2-----2-2---2-----2-2---4--2--1-|--------------------------------|
A#|0----0-0------------------------|--------------------------------|3-----3-3---3-----3-3---3-3---3-|

G |--------------------------------|--------------------------------|---------------------------------|
D |--------------------------------|--------------------------------|---------------------------------|
A |--------------------------------|-----------1----1--1---1--1---3-|---------------------------------|
E |4----4--4---4---4--4---4--4---4-|--------------------------------|3-----3-3---3-----3-3---5-3----4-|
A#|--------------------------------|0----0-0------------------------|---------------------------------|

G |--------------------------------|--------------------------------|
D |--------------------------------|--------------------------------|
A |--------------------------------|--------------------------------|
E |--------------------------------|--------------------------------|
A#|3-----3-3---3-----3-3---3-3---3-|10--10-10--10--10-10--10-10--10-|

Pre-Verse / Outro

G |--------------------------------|--------------------------------|--------------------------------|
D |--------------------------------|--------------------------------|--------------------------------|
A |--------------------------------|--------------------------------|--------------------------------|
E |----------------4---------------|----------------4---------------|----------------4---------------|
A#|0-0-5p0-0-7p5-0---0-0-8-0-0-3-2-|0-0-5p0-0-7p5-0---0-0-8-0-0-3-2-|0-0-5p0-0-7p5-0---0-0-8-0-0-3-2-|

G |--------------------------------|--------------------------------|--------------------------------|
D |--------------------------------|--------------------------------|--------------------------------|
A |--------------------------------|1-------------------------------|--------------------------------|
E |------------------2----2----2---|--------------------------------|--------------------------------|
A#|0-0-5p0-0-7p5-0-----------------|--------------------------------|--------------------------------|



            
            
Suggest correction
Creating personal tab
Creating personal tab
You can edit any tab online and save it as your Personal.

You can edit, replace or remove any tab part or add personal notes – all changes will be seen only by you.

Personal tabs can be accessed anytime from any device, even offline.
Learn more »
Give kudos to tab author, rate the tab!
1 2 3 4 5
comments
print report bad tab
guest
Wanna post a correction for this tab? Suggest correction