Oops, an error
Loading. Please wait.

Evil Angel bass

version 1
version 1

Whole song

Interactive

9,029 views 6 this week
1 commentread comment
1 2 3 4 5
x 5
add to favorites
×
Save as Personal and add changes to this tab that will be seen only by you. Learn more ›
×
You can save this tab as Personal to edit and correct it or add notes. All changes will be seen only by you. Learn more »
launch autoscroll
font size
0
reset
guitar tuner
edit
Autoscroll
slow
fast
+/-
esc
set tempo
stop
Author
“Evil Angel” – Breaking Benjamin

“Evil Angel”

Intro
G#|---------------------------------------|
A#|---------------------------------------|
F |------------------------------------3--|
A#|0h2-2--5p2-0h2-5p2-0h2-2------3--5-----|

G#|--------------------------------------|
A#|--------------------------------------|
F |--------------------------------------|
A#|0h2-2---5p2-0h2-3p2-0h2-2-----5--3--1-|Whole Thing x2

Verse
G#|--------------------------------------------------------------------|
A#|-----3-5-----------3-5----------------------------------------------|
F|---0------3--6-8-0------3--6-8--------6-3--6-3—-6-6-8--6-3-6--5-3-5--|
A#|--------------------------------------------------------------------|

G#|--------------------------------------------------------------------|
A#|--------------------------------------------------------------------|
F |6-3---6-3-—6-6-8---6-3-6-5-3-5—(go right into the chorus)------------|
A#|---------------^----------------------------------------------------|
	          ^right here go into the other verse part (2nd Verse only)
Chorus 1 x2
G#|-----------------------------------------------------|
A#|-----------------------------------------------------|
F |-----------------------------------------------------|
A#|-2-2-2-2-3-5-0--0-0-0-0-4-5--7-7-7-7-7-------5--0----|

Intro x1
Verse
Other Verse Part
G#|-------------------------------------------------------------------|
A#|-7-9/--10p9h10p9h10---8—8p7h8p7h8----------------------------------|
F |-------------------------------------------------------------------|
A#|-------------------------------------------------------------------|

Chorus 1 x2
Chorus 2 x2
G#|--------------------------------------------------------|
A#|--------------------------------------------------------|
F |--------------------------------------------------------|
A#|-5--5-5-5-5-5-9--9-9-9-9-9-10--10-10-10-10-10---5----0--|

Bridge x3
G#|----------------------------------------------------------|
A#|----------------------------------------------------------|
F |----------------------------------------------------------|
A#|-2-22-2-22-2-22-0h2-5p2-0h2-0-00-0-00-3-33-0h2-5p2-0h2----|

Chorus 3 x2
G#|------------------------------------------------------------------|
A#|------------------------------------------------------------------|
F |------------------------------------------------------------------|
A#|-2-2--2-2--2-2-2--0-0--0-0--0-0-0—-7-7-7-7-7-7-----5--0-----------|

Chorus 2 x2

Outro
G#|---------------------------------------------------------|
A#|---------------------------------------------------------|
F |---------------------------------------------------------|
A#|-0h2-22-0h2-22-0h2-22-0h2-22-0h2-22-0h2-22-0h2-22-0h2----|

            
            
Suggest correction
Creating personal tab
Creating personal tab
You can edit any tab online and save it as your Personal.

You can edit, replace or remove any tab part or add personal notes – all changes will be seen only by you.

Personal tabs can be accessed anytime from any device, even offline.
Learn more »
comments
print report bad tab
1 comment total.
0 reply
phasesevenfold 213 Nov 29, 2007 04:19 AM

Its not bad i like it. Better than most i've seen. You pretty much got the fill spot on but i still change things up and
drop down to the G# string and play the 8 and 7 parts of the fill on there. It's a little easier (for me) to transition
to the chorus. but still nice job. =]

guest
You may want to rate the tab now too:
select rating
Wanna post a correction for this tab? Suggest correction