Oops, an error
Loading. Please wait.
We have an official Follow tab made by UG professional guitarists. Check out the tab »
×

Follow tab

version 3
version 3

Whole song

Interactive

4,990 views 3 this week
no commentswrite comment
1 2 3 4 5
1 last vote to show rating
add to favorites
×
Save as Personal and add changes to this tab that will be seen only by you. Learn more ›
×
You can save this tab as Personal to edit and correct it or add notes. All changes will be seen only by you. Learn more »
launch autoscroll
font size
0
reset
how to read this tab
guitar tuner
edit
Autoscroll
slow
fast
+/-
esc
set tempo
stop
This tab is 100% accurat if you have any questions, comments
request for other breaking benjamin tabs my email is
bigmarg5@hotmail.com

Tabed By: Dmlvr101

Tunning Drop D down 1 step

C-G-C-F-A-D

You can play in drop d just doesnt sound that great.
(or right)

p=pull off
h=hammer on
s=slide
\=slid down
/=slide up

Guitar I (Ben)
|-------------------------------------------|
|-------------------------------------------|
|-------------------------------------------|
|--5p3-0-3-5-5-5-5--x-x--5p3--8-5-5-5-5-x-x-|
|--5p3-0-3-5-5-5-5--x-x--5p3--8-5-5-5-5-x-x-|
|--5p3-0-3-5-5-5-5--x-x--5p3--8-5-5-5-5-x-x-|

Guitar II Enters (Arron)

|------------------------------------------------|
|------------------------------------------------|
|------------------------------------------------|
|--5p3-0-3-5-5-5-5--x-x--5p3--8-5-5-5-x-0-x-3-3--|
|--5p3-0-3-5-5-5-5--x-x--5p3--8-5-5-5-x-0-x-3-3--|
|--5p3-0-3-5-5-5-5--x-x--5p3--8-5-5-5-x-0-x-3-3--|


|-------------------------------------|
|-------------------------------------|
|-------------------------------------|
|---5-5-5-5--x-x--5p3--8-5-5-5-5-x-x--|
|---5-5-5-5--x-x--5p3--8-5-5-5-5-x-x--|
|---5-5-5-5--x-x--5p3--8-5-5-5-5-x-x--|

|--------------------------------------------------------|
|-----------------------------------------------------8--|
|-----------------------------------------------------7--|
|--5p3-0-3-5-5-5-5--x-x--5p3--8-5-5-5-x-0-x-3--8------5--|
|--5p3-0-3-5-5-5-5--x-x--5p3--8-5-5-5-x-0-x-3--5--or--5--|
|--5p3-0-3-5-5-5-5--x-x--5p3--8-5-5-5-x-0-x-3--5------5--|


Verse 

This is the effects part played by arron

w-tremolo & panning effects

|-----|-------------------------------|
|--8--|--8-8-8-8-8-8-8-8-8-8-8-8-8-8--|
|--x--|--x-x-x-x-x-x-x-x-x-x-x-x-x-x--|
|--5--|--5-5-5-5-5-5-5-5-5-5-5-5-5-5--|
|-----|-------------------------------|
|-----|-------------------------------|

Ben

|------------------------------------|
|-8--8----6--6----4-4-4-4-4-4--6--8--|
|-7--7----5--5----3-3-3-3-3-3--5--7--|
|-5--5----3--3----1-1-1-1-1-1--3--5--|
|-5--5----3--3----1-1-1-1-1-1--3--5--|
|-5--5----3--3----1-1-1-1-1-1--3--5--|


then effects again but as shown

|------|---------------------------------------------|
|--15--|--15-15-15-15-15-15-15-15-15-15-15-15-15-15--|
|--x---|--x--x--x--x--x--x--x--x--x--x--x--x--x--x---|
|--12--|--12-12-12-12-12-12-12-12-12-12-12-12-12-12--|
|------|---------------------------------------------|
|------|---------------------------------------------|

then this again but slightly changed

|-------------------------------------------|
|--8--8-8----6--6-6----4---4-4-4-4-4--6--8--|
|--7--7-7----5--5-5----3---3-3-3-3-3--5--7--|
|x-5--5-5--x-3--3-3--x-1---1-1-1-1-1--3--5--|
|x-5--5-5--x-3--3-3--x-1---1-1-1-1-1--3--5--|
|x-5--5-5--x-3--3-3--x-1---1-1-1-1-1--3--5--|


then ben plays

P.M -------------------------------------------------------|           |--

c|---------------------------------------------------------------------|
g|------------------------------------------------------------3-3-3----|
c|-5--5-5-5-5-5-5-5--3-3-3-3-3-3-3-3--1-1-1-1-1-1-1-1-1-1-1-1--------5-|

  ---------------------------------------------------------            |--
  
c|---------------------------------------------------------------------|
g|------------------------------------------------------------3-3-3----|
c|-5--5-5-5-5-5-5-5--3-3-3-3-3-3-3-3--1-1-1-1-1-1-1-1-1-1-1-1--------5-|


one more time but sliGhtly different

c|----------------------------------------------------------------------|
g|----------------------------------------------------------------------|
c|-5--5-5-5-5-5-5-5--3-3-3-3-3-3-3-3-1-1-1-1-1-1-1-1-1-1-1-1--3-3-3-----|
                      
                    chorus
c|-----------------|---------------------------------------------------|
g|-1-1-1-1-1-1--x--|-8-8-8-8-8-8-8--x-3-3-3-3-3-3-3--x-5-5-5-5-5-5-5-x-|
c|-1-1-1-1-1-1--x--|-8-8-8-8-8-8-8--x-3-3-3-3-3-3-3--x-5-5-5-5-5-5-5-x-|

f|---------------------------------------------------------------------|
c|-8-8-8-8-8-8-8-------------------------------------------------------|
g|-6-6-6-6-6-6-6--x--8-8-8-8-8-8-8--x-3-3-3-3-3-3-3--x-5-5-5-5-5-5-5-x-|
c|----------------x--8-8-8-8-8-8-8--x-3-3-3-3-3-3-3--x-5-5-5-5-5-5-5-x-|


d|-1---1-----------1---1-----------------------|
a|-3---3----x-x-x--3---3-----------------------|
f|-3---3----x-x-x--3---3--and------------------|
c|-1---1----x-x-x--1---1-------8-8--x-x-x--8-8-|
g|-----------------------------6-6--x-x-x--6-6-|
c|---------------------------------------------|


|-------------------------------------------|
|-------------------------------------------|
|-------------------------------------------|
|--5p3-0-3-5-5-5-5--x-x--5p3--8-5-5-5-5-x-x-|
|--5p3-0-3-5-5-5-5--x-x--5p3--8-5-5-5-5-x-x-|
|--5p3-0-3-5-5-5-5--x-x--5p3--8-5-5-5-5-x-x-|


|--------------------------------------------------------|
|-----------------------------------------------------8--|
|-----------------------------------------------------7--|
|--5p3-0-3-5-5-5-5--x-x--5p3--8-5-5-5-x-0-x-3--8------5--|
|--5p3-0-3-5-5-5-5--x-x--5p3--8-5-5-5-x-0-x-3--5--or--5--|
|--5p3-0-3-5-5-5-5--x-x--5p3--8-5-5-5-x-0-x-3--5------5--|


repeat verse & chorus

Bridge

 end of chorus       start of bridge

|------------------|-----------------------------|
|------------------|-----------------------------|
|------------------|--x-x-x-x--------------------|
|--8-8--x-x-x--8-8-|--x-x-x-x--------------------|
|--6-6--x-x-x--6-6-|--x-x-x-x---6--5--3--1--0--1-|
|------------------|------------6--5--3--1--0--1-|


c|----------------------------------------------------|
g|-----------------------------------6--5--3--1--0--1-|
c|5-5-5-5-5-5-5-5--0-0-0-0-0-0-0-0---6--5--3--1--0--1-|

  i follow you.... you follow mee
|------------------------------|
|-8\--------3\---------------5-| start normal chorus
|-8\--------3\---------------5-|


soloish thing

starts right before he repeats a dont know why twice

|-----------------------|
|--11-11-11-11-11-11-11-|
|--x--x--x--x--x--x--x--|
|--8--8--8--8--8--8--8--|
|-----------------------|


then 


|-------------------------------------------------------------|
|--11-11-11-11//-13-13-13-13-//-15-15-15-15-15-15-15-15-15-//-|
|--x--x--x--x//--x--x--x--x--//-x--x--x--x--x--x--x--x--x--//-|
|--8--8--8--8//--10-10-10-10-//-12-12-12-12-12-12-12-12-12-//-|
|-------------------------------------------------------------|
|-------------------------------------------------------------|

|-----------------------------------------------------------------|
|--16-16-16-16-16-16-16-16-16-\\-15-15-15-15-15-15-15-15-15-15-15-|
|--x--x--x--x--x--x--x--x--x--\\-x--x--x--x--x--x--x--x--x--x--x--|
|--13-13-13-13-13-13-13-13-13-\\-12-12-12-12-12-12-12-12-12-12-12-|
|-----------------------------------------------------------------|
|-----------------------------------------------------------------|


repeats

then back to intro

song ends with slide

|--------|
|--5\\\--|
|--5\\\--|



            
            
Suggest correction
Creating personal tab
Creating personal tab
You can edit any tab online and save it as your Personal.

You can edit, replace or remove any tab part or add personal notes – all changes will be seen only by you.

Personal tabs can be accessed anytime from any device, even offline.
Learn more »
Give kudos to tab author, rate the tab!
1 2 3 4 5
comments
print report bad tab
guest
Wanna post a correction for this tab? Suggest correction