Oops, an error
Loading. Please wait.
We have an official Forget It tab made by UG professional guitarists. Check out the tab »
×
1,452 views 1 this week
no commentswrite comment
1 2 3 4 5
1 last vote to show rating
add to favorites
×
Save as Personal and add changes to this tab that will be seen only by you. Learn more ›
×
You can save this tab as Personal to edit and correct it or add notes. All changes will be seen only by you. Learn more »
launch autoscroll
font size
0
reset
guitar tuner
edit
Autoscroll
slow
fast
+/-
esc
set tempo
stop
Author
Difficulty
-----------------------------------------------------------------------------
                       FORGET IT - BREAKING BENJAMIN
-----------------------------------------------------------------------------

This is a rewrite of another tab, just to make it 100% correct. You can view the other 
here: http://www.ultimate-guitar.com/tabs/b/breaking_benjamin/forget_it_btab.htm
NOTE: I TAKE NO CREDIT FOR THIS TAB. I am simply correcting it, and sending the 
version to the original tabber. I will include FULL lyrics so you know what goes when. (note, 
will be on top of tab) (I counted EACH ONE OF THESE so DON'T tell me I have it wrong)

Tabbed By: Chris
Email: mich0365@umn.edu

Corrected By: Jay
Email: moroninabottle@gmail.com

Intro

G|---------------------------------------------------------------|
D|---------------------------------------------------------------|
A|---------------------------------------------------------------|
E|0-0-0-0-0-0-0-0-0-0-0-0-0-0-0-0-3-3-3-3-3-3-3-3-3-3-3-3-3-3-3-3|

Verse 1


It's a crime you let it happen to me
Never mind, I'll let it happen to you

G|---------------------------------------------------------------|
D|---------------------------------------------------------------|
A|---------------------------------------------------------------|
E|0-0-0-0-0-0-0-0-0-0-0-0-0-0-0-0-4-4-4-4-4-4-4-4-4-4-4-4-4-4-4-4|

Out of mind, forget it there's nothing to lose
But my mind and all the things I wanted

G|---------------------------------------------------------------|
D|---------------------------------------------------------------|
A|4-4-4-4-4-4-4-4-4-4-4-4-4-4-4-4-0-0-0-0-0-0-0-0-0-0-0-0-0-0-0-0|
E|---------------------------------------------------------------|

Every time I get it I throw it away
It's a sign, I get it, I wanna say

G|---------------------------------------------------------------|
D|---------------------------------------------------------------|
A|---------------------------------------------------------------|
E|0-0-0-0-0-0-0-0-0-0-0-0-0-0-0-0-4-4-4-4-4-4-4-4-4-4-4-4-4-4-4-4|

By the time I lose it I'm not afraid
Of looking at you truly fake it

G|---------------------------------------------------------------|
D|---------------------------------------------------------------|
A|4-4-4-4-4-4-4-4-4-4-4-4-4-4-4-4-5-5-5-5-5-5-5-5-5-5-5-5-5-5-5-5|
E|---------------------------------------------------------------|

Chorus:

How can I believe when this cloud hangs over me
You're the part of me that I don't wanna see

G|---------------------------------------------------------------|
D|---------------------------------------------------------------|
A|---------------------------------------------------------------|
E|0-0-0-0-0-0-0-0-0-0-0-0-0-0-0-0-4-4-4-4-4-4-4-4-4-4-4-4-4-4-4-4|

G|-------------------------------|
D|-------------------------------|
A|4-4-4-4-4-4-4-4-0-0-0-0-2-2-2-2|
E|-------------------------------|

Forget it... (14x, I counted XD)

G|---------------------------------------------------------------|
D|---------------------------------------------------------------|
A|---------------------------------------------------------------|
E|0-0-0-0-0-0-0-0-0-0-0-0-0-0-0-0-4-4-4-4-4-4-4-4-4-4-4-4-4-4-4-4|

G|---------------------------------------------------------------|
D|---------------------------------------------------------------|
A|4-4-4-4-4-4-4-4-4-4-4-4-4-4-4-4--------------------------------|
E|--------------------------------0-0-0-0-0-0-0-0-0-0-0-0-0-0-0-0|

Verse 2:

There's a place I see you follow me
Just a taste of all that might come to be

G|---------------------------------------------------------------|
D|---------------------------------------------------------------|
A|---------------------------------------------------------------|
E|1-1-1-1-1-1-1-1-1-1-1-1-1-1-1-1-5-5-5-5-5-5-5-5-5-5-5-5-5-5-5-5|

I'm alone but only breath you can breathe
To question every answer coming

G|---------------------------------------------------------------|
D|---------------------------------------------------------------|
A|5-5-5-5-5-5-5-5-5-5-5-5-5-5-5-5-6-6-6-6-6-6-6-6-6-6-6-6-6-6-6-6|
E|---------------------------------------------------------------|

Just fade away
Please let me stay
Coming your way
(forget it...)
G|---------------------------------------------------------------|
D|---------------------------------------------------------------|
A|---------------------------------------------------------------|
E|2-2-2-2-2-2-2-2-2-2-2-2-2-2-2-2-6-6-6-6-6-6-6-6-6-6-6-6-6-6-6-6|

G|---------------------------------------------------------------|
D|---------------------------------------------------------------|
A|6-6-6-6-6-6-6-6-6-6-6-6-6-6-6-6-2-2-2-2-2-2-2-2-2-2-2-2-2-2-2-2|
E|---------------------------------------------------------------|

Just fade away
Please let me stay
Coming your way
(forget it...)

G|---------------------------------------------------------------|
D|---------------------------------------------------------------|
A|---------------------------------------------------------------|
E|2-2-2-2-2-2-2-2-2-2-2-2-2-2-2-2-6-6-6-6-6-6-6-6-6-6-6-6-6-6-6-6|

G|---------------------------------------------------------------|
D|---------------------------------------------------------------|
A|6-6-6-6-6-6-6-6-6-6-6-6-6-6-6-6-2-2-2-2-2-2-2-2-2-2-2-2-2-2-2-2|
E|---------------------------------------------------------------|

Verse 3:

It's a crime you let it happen to me
Out of mind, I love it, easy to please

G|---------------------------------------------------------------|
D|---------------------------------------------------------------|
A|---------------------------------------------------------------|
E|3-3-3-3-3-3-3-3-3-3-3-3-3-3-3-3-7-7-7-7-7-7-7-7-7-7-7-7-7-7-7-7|

Never mind, forget it, just memory
All the pain inside a spiral notebook

G|---------------------------------------------------------------|
D|---------------------------------------------------------------|
A|7-7-7-7-7-7-7-7-7-7-7-7-7-7-7-7-8-8-8-8-8-8-8-8-8-8-8-8-8-8-8-8|
E|---------------------------------------------------------------|

Bridge

G|---------------------------------------------------------------|
D|---------------------------------------------------------------|
A|---------------------------------------------------------------|
E|4-4-4-4-4-4-4-4-4-4-4-4-4-4-4-4-8-8-8-8-8-8-8-8-8-8-8-8-8-8-8-8|

G|---------------------------------------------------------------------|
D|---------------------------------------------------------------------|
A|8-8-8-8-8-8-8-8-8-8-11-11-10-10-11-11--------------------------------|
E|--------------------------------------9-9-9-9-9-9-9-9-9-9-9-9-9-9-9-9|

Just fade away
Please let me stay
Coming your way
I can live forever here

G|---------------------------------------------------------------|
D|---------------------------------------------------------------|
A|---------------------------------------------------------------|
E|4-4-4-4-4-4-4-4-4-4-4-4-4-4-4-4-8-8-8-8-8-8-8-8-8-8-8-8-8-8-8-8|

G|---------------------------------------------------------------------|
D|---------------------------------------------------------------------|
A|8-8-8-8-8-8-8-8-8-8-11-11-10-10-11-11--------------------------------|
E|--------------------------------------9-9-9-9-9-9-9-9-9-9-9-9-9-9-9-9|

Just Fade away
Please let me stay
Coming your way
I can live forever here

G|---------------------------------------------------------------|
D|---------------------------------------------------------------|
A|---------------------------------------------------------------|
E|4-4-4-4-4-4-4-4-4-4-4-4-4-4-4-4-8-8-8-8-8-8-8-8-8-8-8-8-8-8-8-8|

G|---------------------------------------------------------------------|
D|---------------------------------------------------------------------|
A|8-8-8-8-8-8-8-8-8-8-11-11-10-10-11-11--------------------------------|
E|--------------------------------------9-9-9-9-9-9-9-9-9-9-9-9-9-9-9-9|

How can I believe when this cloud hangs over me
You're a part of me that I don't wanna see

G|---------------------------------------------------------------|
D|---------------------------------------------------------------|
A|---------------------------------------------------------------|
E|4-4-4-4-4-4-4-4-4-4-4-4-4-4-4-4-8-8-8-8-8-8-8-8-8-8-8-8-8-8-8-8|

G|---------------------------------------------------------------------|
D|---------------------------------------------------------------------|
A|8-8-8-8-8-8-8-8-8-8-11-11-10-10-11-11--------------------------------|
E|--------------------------------------9-9-9-9-9-9-9-9-9-9-9-9-9-9-9-9|


Outro

I can live forever here

G|-------------|
D|6-6-5-5------|
A|--------6-8--|
E|------------4|

            
            
Suggest correction
Creating personal tab
Creating personal tab
You can edit any tab online and save it as your Personal.

You can edit, replace or remove any tab part or add personal notes – all changes will be seen only by you.

Personal tabs can be accessed anytime from any device, even offline.
Learn more »
Give kudos to tab author, rate the tab!
1 2 3 4 5
comments
print report bad tab
guest
You may want to rate the tab now too:
select rating
Wanna post a correction for this tab? Suggest correction