Oops, an error
Loading. Please wait.
We have an official Give Me A Sign tab made by UG professional guitarists. Check out the tab »
×
209 views 1 this week
no commentswrite comment
1 2 3 4 5
3 more votes to show rating
add to favorites
×
Save as Personal and add changes to this tab that will be seen only by you. Learn more ›
×
You can save this tab as Personal to edit and correct it or add notes. All changes will be seen only by you. Learn more »
launch autoscroll
font size
0
reset
how to read this tab
guitar tuner
backing track
0:00
0:00
edit
Autoscroll
slow
fast
+/-
esc
set tempo
stop
-------------------------------------------------------------------------------
                            Give Me A Sign - Breaking Benjamin
-------------------------------------------------------------------------------
Tabbed by: Mats Cornelissen
E-mail: matshoi@hotmail.com

Tuning: Drop C#
LEAD GUITAR
(.) means stop the sound for half a second and continue playing

Intro
D#|------------------------------------------------------------------------------|
A#|------------------------------------------------------------------------------|
F#|-9---11-12------11-12----------9--11--12---------9--------------11-12---------|
C#|---9-------12-9--------10--12------------10-9-10---10-9-10----9---------------|
G#|-----------------------------------------------------------10-----------------|
C#|------------------------------------------------------------------------------|

D#|------------------------------------------------------------------------------|
A#|------------------------------------------------------------------------------|
F#|------------------------------------------------------------------------------|
C#|-------12-11-5----------------------------------------------------------------|
G#|--12-9-------5-(Hold 4 sec)-(12-sec rest)-------------------------------------|
C#|-------------5----------------------------------------------------------------|

Verse 1
D#|--------|--------|------3~-|------0----2-3------------------------------------|
A#|-----3~-|-----0~-|--0-1----|--0-3----3----------------------------------------|
F#|---4----|---3----|---------|--------------------------------------------------|
C#|-5------|-4------|---------|--------------------------------------------------|
G#|--------|--------|---------|--------------------------------------------------|
C#|--------|--------|---------|--------------------------------------------------|

Chorus
D#|------------------------------------------------------------------------------|
A#|-12-10-12.--12-10-12.--12-10-12-13-12-10----------10-12-13----12-13-10--------|
F#|-----------------------------------------12-12-12----------12-----------------|
C#|------------------------------------------------------------------------------|
G#|------------------------------------------------------------------------------|
C#|------------------------------------------------------------------------------|

D#|------------------------------------------------------------------------------|
A#|--10-10-10----------10----12-10-12--------------12-10-12.--12-10-12.--12-10-12|
F#|-----------11-12-11----12----------11-12-11-12--------------------------------|
C#|------------------------------------------------------------------------------|
G#|------------------------------------------------------------------------------|
C#|------------------------------------------------------------------------------|

D#|------------------------------------------------------------------------------|
A#|-13-12-10----------10-12-13----12-13-10-10-10-10----------10-12-13-(2 sec rest)
F#|----------12-12-12----------12-------------------12-11-12---------------------|
C#|------------------------------------------------------------------------------|
G#|------------------------------------------------------------------------------|
C#|------------------------------------------------------------------------------|

D#|------------------------------------------------------------------------------|
A#|--------------------------------10--------------------------------------------|
F#|-12-11-12.--12-11-12.--12-11-12----12-11--------------------------------------|
C#|-----------------------------------------12-----------------------------------|
G#|------------------------------------------------------------------------------|
C#|------------------------------------------------------------------------------|

Intro Riff (Leave 12 seconds rest 

Verse 2
D#|--------|--------|-------0-------|--------------------------------------------|
A#|-----3~-|-----0~-|---1-3-----1---|--------------------------------------------|
F#|---4----|---1----|-0-----------0-|--------------------------------------------|
C#|-4------|-0------|---------------|--------------------------------------------|
G#|--------|--------|---------------|--------------------------------------------|
C#|--------|--------|---------------|--------------------------------------------|

Repeat Verse 1
Repeat Chorus

Bridge
D#|----------------------------------------10.-----------------------------------|
A#|-12-10-12.--12-10------12-10-12.--12-10------12-10-12-13-12-10-------10-x-10--|
F#|------------------12.------------------------------------------12-12----x-----|
C#|------------------------------------------------------------------------------|
G#|------------------------------------------------------------------------------|
C#|------------------------------------------------------------------------------|

D#|------------------------------------------------------------------------------|
A#|------------------------------------------------------------------------------|
F#|---12-11-11/12/9-(2 sec rest)-------------------------------------------------|
C#|------------------------------x-x-x-x-----------------------------------------|
G#|------------------------------x-x-x-x-----------------------------------------|
C#|------------------------------x-x-x-x-----------------------------------------|

Repeat Chorus

Outro
D#|-7-7-7-7-7-7-7-7--5-5-5-5-5-5-5-5--12-12-12-12-12-12-12-12-8-8-8-8-8-8-8-8-|--|
A#|-8-8-8-8-8-8-8-8--8-8-8-8-8-7-7-7--12-12-12-12-12-12-12-12-8-8-8-8-8-8-8-8-|-(3X)|
F#|---------------------------------------------------------------------------|--|
C#|------------------------------------------------------------------------------|
G#|------------------------------------------------------------------------------|
C#|------------------------------------------------------------------------------|

D#|------------------------------------------------------------------------------|
A#|------------------------------------------------------------------------------|
F#|-2-2--x-x-x-x--0-0--x-x-x--5-5-x-5--------------------------------------------|
C#|-2-2--x-x-x-x--0-0--x-x-x--5-5-x-5--------------------------------------------|
G#|-2-2--x-x-x-x--0-0--x-x-x--5-5-x-3--------------------------------------------|
C#|-2-2--x-x-x-x--0-0--x-x-x--5-5-x----------------------------------------------|

RYTHEM GUITAR
Intro
D#|----------------------------------------------------------------------------------|
A#|----------------------------------------------------------------------------------|
F#|-------------------------2-2-2--2-2-2---4--5-5-5--5-5-5--5-5-5--------------------|
C#|-2-2--2-2-2--0-0--0-0-0--2-2-2--2-2-2-x-4--5-5-5--5-5-5--5-5-5--5-5--5-5-5--------|
G#|-2-2--2-2-2--0-0--0-0-0--0-0-0--0-0-0-x-2--3-3-3--3-3-3--3-3-3--5-5--5-5-5--0-0-5full bend-|
C#|-2-2--2-2-2--0-0--0-0-0---------------x-------------------------5-5--5-5-5--0-0-0-|

Verse
D#|-3---3--3---3-3--3---|-2---2--2---2-2--2---|-0---0--0---0-0--0---|-3---3--3---3-3--3---|
A#|-3---3--3-3-3-3--3---|-3---3--3-3-3-3--3---|-1---1--1-1-1-1--1---|-3---3--3-3-3-3--3---|
F#|-4-4-4--4-4-4-4--4-4-|-4-4-4--4-4-4-4--4-4-|-0-0-0--0-0-0-0--0-0-|-0-0-0--0-0-0-0--0-0-|
C#|-5-5------5-5-5--5-5-|-4-4------4-4-4--4-4-|-2-2------2-2-2--2-2-|-2-2------2-2-2--2-2-| 2X
G#|-5-5--------5-5--5-5-|-2-2--------2-2--2-2-|-0-0--------0-0--0-0-|-3-3--------3-3--3-3-|
C#|---------------------|---------------------|---------------------|---------------------|

Chorus
D#|------------------------------------------------------------------------------------------|
A#|------------------------------------------------------------------------------------------|
F#|-------------------------5-5-5--5-5-5--5-5-5-----------------------------------4-4-4-|----|
C#|-2-2--2-2-2--0-0--0-0-0--5-5-5--5-5-5--5-5-5-5-5-5--5-5-5--5-5-5-0-0-0--0-0-0--4-4-4-|(2X)|
G#|-2-2--2-2-2--0-0--0-0-0--3-3-3--3-3-3--3-3-3-5-5-5--5-5-5--5-5-5-0-0-0--0-0-0--2-2-2-|----|
C#|-2-2--2-2-2--0-0--0-0-0----------------------5-5-5--5-5-5--5-5-5-0-0-0--0-0-0--------|----|

D#|-----------------------------------------------------------------------------------------|
A#|-----------------------------------------------------------------------------------------|
F#|-------------------------------5--5-5-5--5-5---------------------------------------------|
C#|-2-2--2-2-2--0-0--0-0-0--5-5-x-5--5-5-5--5-5--5-5-5--5-5-5--5-5-5--0-0-0--0-0-0--0-0-0---|
G#|-2-2--2-2-2--0-0--0-0-0--5-5-x-3--3-3-3--3-3--5-5-5--5-5-5--5-5-5--0-0-0--0-0-0--0-0-0---|
C#|-2-2--2-2-2--0-0--0-0-0--5-5-x----------------5-5-5--5-5-5--5-5-5--0-0-0--0-0-0--0-0-0---|

Intro Riff
Verse
Chorus

Bridge
D#|----------------------------------------------------------|-------------------------|
A#|----------------------------------------------------------|-------------------------|
F#|-5--5--5-5-5-5----------------------5--5--5-5-5-5--5--5-5---------7--7-7-7-7-|------|
C#|-5--5--5-5-5-5-0--2--2--2-2-2-2--0--5--5--5-5-5-5--5--5-5--5-5-x--7--7-7-7-7-|-(2X)-|
G#|-3--3--3-3-3-3-0--2--2--2-2-2-2--0--3--3--3-3-3-3--3--3-3--5-5-x--5--5-5-5-5-|------|
C#|---------------0--2--2--2-2-2-2--0-------------------------5-5-x--0--0-0-0-0-|------|

D#|-----------------------------------------------------------------------------------|
A#|-----------------------------------------------------------------------------------|
F#|-5--------------x-x-x-x------------------------------------------------------------|
C#|-5-(Hold 4 sec)-x-x-x-x------------------------------------------------------------|
G#|-3--------------x-x-x-x------------------------------------------------------------|
C#|----------------x-x-x-x------------------------------------------------------------|

Chorus

Outro
D#|--------------------------------------------|-------------------------------------|
A#|--------------------------------------------|-------------------------------------|
F#|--------------------------------------------|--------------------------444--------|
C#|----------------------------------555-55555-|-5--5--5-55-555-0--0-0-00-444--------|
G#|-555555-555-000000-000-222222-222-333-33333-|-5--5--5-55-555-0--0-0-00-222--------|
C#|-555555-555-000000-000-222222-222-----------|-5--5--5-55-555-0--0-0-00------------|
    ...... ... ...... ... ...... ... ...
D#|--------------------------------------|-------------------------------------------|
A#|--------------------------------------|-------------------------------------------|
F#|--------------------5--5-5-5-5--5-5-5-|---------------------------------------5---|
C#|-2--2-2-2-2--2-2-2--5--5-5-5-5--5-5-5-|-(2X)-2-2--x-x-x-x-0-0--x-x-x-x--5-5-x-5---|
G#|-2--2-2-2-2--2-2-2--3--3-3-3-3--3-3-3-|------2-2--x-x-x-x-0-0--x-x-x-x--5-5-x-3---|
C#|-2--2-2-2-2--2-2-2--------------------|------2-2--x-x-x-x-0-0--x-x-x-x--5-5-x-----|

            
            
Suggest correction
Creating personal tab
Creating personal tab
You can edit any tab online and save it as your Personal.

You can edit, replace or remove any tab part or add personal notes – all changes will be seen only by you.

Personal tabs can be accessed anytime from any device, even offline.
Learn more »
Give kudos to tab author, rate the tab!
1 2 3 4 5
comments
print report bad tab
guest
You may want to rate the tab now too:
select rating
Wanna post a correction for this tab? Suggest correction