Oops, an error
Loading. Please wait.

Had Enough bass

version 4
version 4

Interactive

926 views 1 this week
no commentswrite comment
1 2 3 4 5
2 more votes to show rating
add to favorites
×
Save as Personal and add changes to this tab that will be seen only by you. Learn more ›
×
You can save this tab as Personal to edit and correct it or add notes. All changes will be seen only by you. Learn more »
launch autoscroll
font size
0
reset
guitar tuner
edit
Autoscroll
slow
fast
+/-
esc
set tempo
stop
Author
“Had Enough” – Breaking Benjamin

Tuning (A#, F, A#, D#)

D#|---------------------------------|
A#|---------------------------------|
F |---------------------------------|
A#|-2--3-2-0-2—--3-2-0-5-4-4-0------| x2

D#|-------------------------|
A#|-------------------------|
F |-1---1h2h3p1---1---6-----|
A#|-------------------------| x2

Verse
D#|---------------------------------|
A#|---------------------------------|
F |---------------------------------|
A#|-6~----8-10-------5~----8-5------| x3

Chorus
D#|--------------------------------------------------------------|
A#|--------------------------------------------------------------|
F |--------------------------------------------------------------|
A#|-4-4-4-4-4-4-4-4-4-7-7-7-7-7-7-7-7-7-9-9-xx-9-9—9-7-7-9-9—0h5-| x2

Intro
Verse
Chorus 

Bridge
D#|-----------------------|
A#|-----------------------|
F |---------4-------------|
A#|-1---4-------4---3-----|

Chorus 
Intro x2


            
            
Suggest correction
Creating personal tab
Creating personal tab
You can edit any tab online and save it as your Personal.

You can edit, replace or remove any tab part or add personal notes – all changes will be seen only by you.

Personal tabs can be accessed anytime from any device, even offline.
Learn more »
Give kudos to tab author, rate the tab!
1 2 3 4 5
comments
print report bad tab
guest
You may want to rate the tab now too:
select rating
Wanna post a correction for this tab? Suggest correction