Oops, an error
Loading. Please wait.

Had Enough tab

version 2
version 2

Whole song

Interactive

9,423 views 6 this week
6 commentsread comments
1 2 3 4 5
x 10
add to favorites
×
Save as Personal and add changes to this tab that will be seen only by you. Learn more ›
×
You can save this tab as Personal to edit and correct it or add notes. All changes will be seen only by you. Learn more »
launch autoscroll
font size
0
reset
how to read this tab
guitar tuner
edit
Autoscroll
slow
fast
+/-
esc
set tempo
stop
Author
Difficulty
----------------------------------------------------------------------------
                          Had Enough - Breaking Benjamin
----------------------------------------------------------------------------
Tabbed by:CrosseGod18
Email:crossegod@yahoo.com

After my dismal failure at Dance With The Devil(no one is more ashamed than me), I got into
this song alot. The tabs that jaames and incubosity have up are fairly accurate but they 
lack the lead parts, I was able to tab them out so here they are

Tuning:Bb F Bb Eb G C (or A# for those who can't tell the difference)

Guitar 1 (Ben)
Guitar 2 (Aaron)

Intro:
Guitar 1
 C|------------------------------------------------------------------------|
 G|------------------------------------------------------------------------|
Eb|------------------------------------------------------------------------|
Bb|-2--0h2p0-2---0h2p0-5-5-4-0---2--0h2p0-2---0h2p0-5-5-4-0----------------|
 F|-2--0h2p0-2---0h2p0-5-5-4-0---2--0h2p0-2---0h2p0-5-5-4-0----------------|
Bb|-2--0h2p0-2---0h2p0-5-5-4-0---2--0h2p0-2---0h2p0-5-5-4-0----------------|

 C|------------------------------------------------------------|
 G|------------------------------------------------------------|
Eb|-----------------16-16-16-16-------------------16-16-16-16--|
Bb|-10-10-10h12-10---x--x--x--x---10-10-10h12-10---x--x--x--x--|X2
 F|-10-10-10h12-10--14-14-14-14---10-10-10h12-10--14-14-14-14--|
Bb|-10-10-10h12-10----------------10-10-10h12-10---------------|

Guitar 2
 C|------------------------------------------------------------------------|
 G|------------------------------------------------------------------------|
Eb|------------------------------------------------------------------------|
Bb|-2--0h2p0-2---0h2p0-5-5-4-0---2--0h2p0-2---0h2p0-5-5-4-0----------------|
 F|-2--0h2p0-2---0h2p0-5-5-4-0---2--0h2p0-2---0h2p0-5-5-4-0----------------|
Bb|-2--0h2p0-2---0h2p0-5-5-4-0---2--0h2p0-2---0h2p0-5-5-4-0----------------|

 C|------------------------------------------------------------------------|
 G|----------------12-12-12-12------------------12-12-12-12----------------|
Eb|-12-12-12/14-12--x--x--x--x---12-12-12/14-12--x--x--x--x----------------|
Bb|-10-10-10/12-10--9--9--9--9---10-10-10/12-10--9--9--9--9----------------|
 F|-10-10-10/12-10---------------10-10-10/12-10----------------------------|
Bb|-10-10-10/12-10---------------10-10-10/12-10----------------------------|

 C|------------------------------------------------------------------------|
 G|--------------------------------------------------------12-12-12-12-----|
Eb|--------12-11---------------12-11--------12-12-12/14-12--x--x--x--x-----|
Bb|--14-12-------14-12---14-12-------14-12--10-10-10/12-10--9--9--9--9-----|
 F|-----------------------------------------10-10-10/12-10-----------------|
Bb|-----------------------------------------10-10-10/12-10-----------------|

 C|-----------------------------|
 G|----------------12-12-12-12--|
Eb|-12-12-12-14-12--x--x--x--x--|
Bb|-10-10-10/12-10--9--9--9--9--|
 F|-10-10-10/12-10--------------|
Bb|-10-10-10/12-10--------------|

Verse:
Guitar 1&2
 C|--------------------------------------------|
 G|--------------------------------------------|
Eb|-9---9-12------------9---9-12------------9--|
Bb|-9---9-12--10---10-9-9---9-12--10---10-9-9--|
 F|-7---7-10--10---10-9-7---7-10--10---10-9-7--|
Bb|-----------10---10-9-----------10---10-9----|

Chorus:
Guitars 1&2
 C|------------------------------------------------------------------------|
 G|------------------------------------------------------------------------|
Eb|-4--4-4-4--11--11-11-11--12-12-----12--12-12-12--7--7-7-7--11--11-11-11-|
Bb|-2--2-2-2---9---9--9--9--10-10-x-x-10--10-10-10--5--5-5-5---9---9--9--9-|
 F|-2--2-2-2---9---9--9--9--10-10-x-x-10--10-10-10--5--5-5-5---9---9--9--9-|
Bb|-2--2-2-2---9---9--9--9--10-10-x-x-10--10-10-10--5--5-5-5---9---9--9--9-|

 C|--------|
 G|--------|
Eb|----2---|
Bb|-x--0---|X2
 F|-x--0---|
Bb|-x--0---|

Re-Intro:
Guitar 1
 C|------------------------------------------------------------------------|
 G|------------------------------------------------------------------------|
Eb|------------------------------------------------------------------------|
Bb|-2--0h2p0-2---0h2p0-5-5-4-0---2--0h2p0-2---0h2p0-5-5-4-0----------------|
 F|-2--0h2p0-2---0h2p0-5-5-4-0---2--0h2p0-2---0h2p0-5-5-4-0----------------|
Bb|-2--0h2p0-2---0h2p0-5-5-4-0---2--0h2p0-2---0h2p0-5-5-4-0----------------|

 C|------------------------------------------------------------|
 G|------------------------------------------------------------|
Eb|-----------------16-16-16-16-------------------16-16-16-16--|
Bb|-10-10-10h12-10---x--x--x--x---10-10-10h12-10---x--x--x--x--|
 F|-10-10-10h12-10--14-14-14-14---10-10-10h12-10--14-14-14-14--|
Bb|-10-10-10h12-10----------------10-10-10h12-10---------------|

Guitar 2
 C|------------------------------------------------------------------------|
 G|--------------------------------------------------------12-12-12-12-----|
Eb|--------12-11---------------12-11--------12-12-12/14-12--x--x--x--x-----|
Bb|--14-12-------14-12---14-12-------14-12--10-10-10/12-10--9--9--9--9-----|
 F|-----------------------------------------10-10-10/12-10-----------------|
Bb|-----------------------------------------10-10-10/12-10-----------------|

 C|-----------------------------|
 G|----------------12-12-12-12--|
Eb|-12-12-12-14-12--x--x--x--x--|
Bb|-10-10-10/12-10--9--9--9--9--|
 F|-10-10-10/12-10--------------|
Bb|-10-10-10/12-10--------------|

Verse 2:
Guitar 1&2
 C|--------------------------------------------|
 G|--------------------------------------------|
Eb|-9---9-12------------9---9-12------------9--|
Bb|-9---9-12--10---10-9-9---9-12--10---10-9-9--|
 F|-7---7-10--10---10-9-7---7-10--10---10-9-7--|
Bb|-----------10---10-9-----------10---10-9----|

Chorus 2:
Guitars 1&2
 C|------------------------------------------------------------------------|
 G|------------------------------------------------------------------------|
Eb|-4--4-4-4--11--11-11-11--12-12-----12--12-12-12--7--7-7-7--11--11-11-11-|
Bb|-2--2-2-2---9---9--9--9--10-10-x-x-10--10-10-10--5--5-5-5---9---9--9--9-|
 F|-2--2-2-2---9---9--9--9--10-10-x-x-10--10-10-10--5--5-5-5---9---9--9--9-|
Bb|-2--2-2-2---9---9--9--9--10-10-x-x-10--10-10-10--5--5-5-5---9---9--9--9-|

 C|--------|
 G|--------|
Eb|----2---|
Bb|-x--0---|X2
 F|-x--0---|
Bb|-x--0---|

Bridge:
Guitars 1&2  (Timing should be right)
 C|---------------------------|
 G|---------------------------|
Eb|---------------------------|
Bb|-2-------9--10-------5---4-|First time is pretty slow, when he starts 
 F|-2-------9--10-------5---5-|singing it speeds up, you should be able
Bb|-2-------9--10-------5---4-|to get it.

Final Chorus:
Guitar 1
 C|------------------------------------------------------------------------|
 G|------------------------------------------------------------------------|
Eb|-4--4-4-4--11--11-11-11--12-12-----12--12-12-12--7--7-7-7--11--11-11-11-|
Bb|-2--2-2-2---9---9--9--9--10-10-x-x-10--10-10-10--5--5-5-5---9---9--9--9-|
 F|-2--2-2-2---9---9--9--9--10-10-x-x-10--10-10-10--5--5-5-5---9---9--9--9-|
Bb|-2--2-2-2---9---9--9--9--10-10-x-x-10--10-10-10--5--5-5-5---9---9--9--9-|

 C|--------|
 G|--------|
Eb|----2---|
Bb|-x--0---|X2
 F|-x--0---|
Bb|-x--0---|

Guitar 2
 C|-19--15----------15--15/17--19--15----------15--15/17--19--15-----------|
 G|---------17--17---------------------17--17---------------------17--17---|
Eb|------------------------------------------------------------------------|
Bb|------------------------------------------------------------------------|
 F|------------------------------------------------------------------------|
Bb|------------------------------------------------------------------------|

 C|-15--15/17--19-19-19-19--17-17-17-17--|
 G|--------------------------------------|
Eb|--------------------------------------|
Bb|--------------------------------------|X2
 F|--------------------------------------|
Bb|--------------------------------------|

Outro:
Guitar 1
 C|------------------------------------------------------------------------|
 G|------------------------------------------------------------------------|
Eb|------------------------------------------------------------------------|
Bb|-2--0h2p0-2---0h2p0-5-5-4-0---2--0h2p0-2---0h2p0-5-5-4-0----------------|
 F|-2--0h2p0-2---0h2p0-5-5-4-0---2--0h2p0-2---0h2p0-5-5-4-0----------------|
Bb|-2--0h2p0-2---0h2p0-5-5-4-0---2--0h2p0-2---0h2p0-5-5-4-0----------------|

 C|------------------------------------------------------------|
 G|------------------------------------------------------------|
Eb|-----------------16-16-16-16-------------------16-16-16-16--|
Bb|-10-10-10h12-10---x--x--x--x---10-10-10h12-10---x--x--x--x--|X2
 F|-10-10-10h12-10--14-14-14-14---10-10-10h12-10--14-14-14-14--|
Bb|-10-10-10h12-10----------------10-10-10h12-10---------------|

Guitar 2:
 C|------------------------------------------------------------------------|
 G|--------------------------------------------------------12-12-12-12-----|
Eb|--------12-11---------------12-11--------12-12-12/14-12--x--x--x--x-----|
Bb|--14-12-------14-12---14-12-------14-12--10-10-10/12-10--9--9--9--9-----|
 F|-----------------------------------------10-10-10/12-10-----------------|
Bb|-----------------------------------------10-10-10/12-10-----------------|

 C|-----------------------------|
 G|----------------12-12-12-12--|
Eb|-12-12-12-14-12--x--x--x--x--|
Bb|-10-10-10/12-10--9--9--9--9--|X2
 F|-10-10-10/12-10--------------|
Bb|-10-10-10/12-10--------------|

Guitars 1&2
 C|-----|
 G|-----|
Eb|-----|
Bb|-2---|
 F|-2---|
Bb|-2---|

You know the deal. Leave comments, rate and all that fun. I love this 
album.Maybe some requests? Other than Dance With The Devil;)

| /  slide up
| \  slide down
| h  hammer-on
| p  pull-off
| ~  vibrato
| +  harmonic
| x  Mute note
============================================================================

            
            
Suggest correction
Creating personal tab
Creating personal tab
You can edit any tab online and save it as your Personal.

You can edit, replace or remove any tab part or add personal notes – all changes will be seen only by you.

Personal tabs can be accessed anytime from any device, even offline.
Learn more »
comments
print report bad tab
6 comments total. Showing first comments.
0 reply
I-Z 214 Aug 26, 2006 08:32 AM

that is great dude haha 5 stars

oh and if you can try and tab out the whole thing of unknown soldier thats song is bad

the other unknown soldier tabs on here are like weired

0 reply
sweetshadow666 10 Sep 12, 2006 04:28 AM

nice tab i love this song try tabbing the whole song until the end the the other one isn't that great

0 reply
llama_slap 338 Sep 12, 2006 11:02 AM

ur missing some lead

guest
You may want to rate the tab now too:
select rating
Wanna post a correction for this tab? Suggest correction