Oops, an error
Loading. Please wait.

Hollow tab

version 1
version 1

Whole song

Interactive

9,633 views 42 this week
2 commentsread comments
1 2 3 4 5
x 11
add to favorites
×
Save as Personal and add changes to this tab that will be seen only by you. Learn more ›
×
You can save this tab as Personal to edit and correct it or add notes. All changes will be seen only by you. Learn more »
launch autoscroll
font size
0
reset
how to read this tab
guitar tuner
edit
Autoscroll
slow
fast
+/-
esc
set tempo
stop
Tabbed by: Soarstaraptor
Breaking Benjamin - Hollow 'Tab'
This song is off their 2015 new album "Dark Before Dawn". Here ya go!
Tuning: Drop C#

Guitar 2: (0:07) Clean w/ Delay and Reverb
D#---------------------------------------------------------|
A#---10------------------------10--------------------------|
F#--------7---9---10---7-----------7----9---10----7--------|
C#---------------------------------------------------------|
G#---------------------------------------------------------|
C#-0------------------------0------------------------------|
    Stay alive.. heaven hold a place for us tonight

Guitar 2: (0:14) Clean w/ Delay and Reverb
D#------------------------------------------------------------------|
A#------------------------------------------------------------------|
F#----7-----------10------9-----5/7-----10------9----------7--------|
C#---------10----------------------------------------10---------7---|
G#------------------------------------------------------------------|
C#-8----------------------------x----0------------------------------|
                  I am paralyzed     

Guitar 1: (0:21) DISTORTION
D#----------------------------------------------------------------------------|
A#----------------------------------------------------------------------------|
F#----------------------------------------------------------------------------|
C#----------------------------------------------------------------------------|
G#-----------------------3----------3h5-----------------------3---------------|
C#-0-12-8p0--8p7p0--3p0----5p0--3p0------0-12-8p0--8p7p0--3p0---5p0--3p2p0-7--|

Guitar 2: (0:21)
D#----------------------------------------------------------------------------|
A#-10-------------------------------------------------6----/10sb--------------|
F#--------7-----9-----9sb-----7-----------------7-----------------------------|
C#----------------------------------------------------------------------------|
G#----------------------------------------------------------------------------|
C#----------------------------------------------------------------------------|

Guitar 1: (0:27)
D#----------------------------------------------------------------------------------|
A#----------------------------------------------------------------------------------|
F#----------------------------------------------------------------------------------|
C#------------------------------------------10---10---10-10--x---7-7-7/10-10-10-10--|
G#-----------------------3----------3h5-----8----8----8--8---x---5-5-5/10-10-10-10--|
C#-0-12-8p0--8p7p0--3p0----5p0--3p0---------8----8----8--8---x---5-5-5/10-10-10-10--|

Guitar 2: (0:27)
D#-----------------------------------------------------------8----------------------|
A#-10----------------------------------------/10---8---------------10---8---10------|
F#--------7-----9-----9sb-----7-----------------------------------------------------|
C#----------------------------------------------------------------------------------|
G#----------------------------------------------------------------------------------|
C#----------------------------------------------------------------------------------|

[VERSE] (0:34 - 1:00) PLAY TWICE
Guitar 1: Distortion
D#-----------|
A#-----------|
F#-----------|
C#-0---------| let ring
G#-0---------|
C#-0---------|

Guitar 2: Clean w/ Delay and Reverb
D#---------------------------------------------------------|
A#---10------------------------10--------------------------|
F#--------7---9---10---7-----------7----9---10----7--------|
C#---------------------------------------------------------|
G#---------------------------------------------------------|
C#-0------------------------0------------------------------|
    Close your eyes, drive away the cloud that hides the..
    Dead, alive, find a way to bury all the..

Guitar 2: Clean w/ Delay and Reverb
D#------------------------------------------------------------------|
A#------------------------------------------------------------------|
F#----7-----------10------9-----5/7-----10------9----------7--------|
C#---------10----------------------------------------10---------7---|
G#------------------------------------------------------------------|
C#-8----------------------------x----0------------------------------|
   Light, and leave the pain behind
   Lies, escape the pain inside

[Pre-Chorus] (1:01)
Guitar 1:
D#---------------------------------------------------|
A#---------------------------------------------------|
F#---------------------------------------------------|
C#-------------------------------------------X-X-X-X-|
G#-------------------------------------------X-X-X-X-|
C#-------------------------------------------X-X-X-X-|

Guitar 2: Clean w/ Delay and Reverb
D#--------------------------------------------------------|
A#-----------------------------------------------8---10---|
F#------------10---9---------------7--------10------------|
C#----7---8----------------------------10-----------------|
G#--------------------------------------------------------|
C#--------------------------------------------------------|
            Cause I don't wanna fall, or let you go!

[Chorus]
Guitar 1: (1:08)
D#--------------------------------------------------------------------------|
A#--------------------------------------------------------------------------|
F#--------------------------------------------------------------------------|
C#-0-----0-----0--0--7--7---7---7-----8-----8---8--8-------10--10---10---10-|
G#-0-----0-----0--0--7--7---7---7-----8-----8---8--8-------10--10---10---10-|
C#-0-----0-----0--0--7--7---7---7-----8-----8---8--8-------10--10---10---10-|
         Love left me hollow..                  I'm with you in the..

Guitar 2: (1:08)
D#----------------------------------------------------------------------------------|
A#----------------------------------------------------------------------------------|
F#-7-----7/10-101010-9-9-9-9-9-9-9-9--7-----7/10-10-10-10--9-9-9-9-9-9-9-9----------|
C#-x-----x/x--x-x-x--x-x-x-x-x-x-x-x--x-----x/x--x--x--x---x-x-x-x-x-x-x-x----------|
G#-5-----5/8--8-8-8--7-7-7-7-7-7-7-7--5-----5/8--8--8--8---7-7-7-7-7-7-7-7----------|
C#----------------------------------------------------------------------------------|

Guitar 1: (1:14)
D#--------------------------------------------------------------------------------|
A#--------------------------------------------------------------------------------|
F#--------------------------------------------------------------------------------|
C#-0-----0-----0--0--7--7---7---7-----8-----8---8--8-------10--10--10--0h7--7--7--|
G#-0-----0-----0--0--7--7---7---7-----8-----8---8--8-------10--10--10--0h7--7--7--|
C#-0-----0-----0--0--7--7---7---7-----8-----8---8--8-------10--10--10--0h7--7--7--|
         Cold, crippled and shallow, don't leave me here again!

Guitar 2: (1:14)
D#----------------------------------------------------------------------------------|
A#----------------------------------------------------------------------------------|
F#-7-----7/10-101010-9-9-9-9-9-9-9-9--7-----7/10-10-10-10-/12-12-12-12--/14-14-14---|
C#-x-----x/x--x-x-x--x-x-x-x-x-x-x-x--x-----x/x--x--x--x--/x--x--x--x---/x--x--x----|
G#-5-----5/8--8-8-8--7-7-7-7-7-7-7-7--5-----5/8--8--8--8--/10-10-10-10--/12-12-12---|
C#----------------------------------------------------------------------------------|

[Post-Chorus]
Guitar 1: (1:21)
D#----------------------------------------------------------------------------------|
A#----------------------------------------------------------------------------------|
F#----------------------------------------------------------------------------------|
C#------------------------------------------10---10---10-10--x---7-7-7/10-10-10-10--|
G#-----------------------3----------3h5-----8----8----8--8---x---5-5-5/10-10-10-10--|
C#-0-12-8p0--8p7p0--3p0----5p0--3p0---------8----8----8--8---x---5-5-5/10-10-10-10--|

Guitar 2: (1:21)
D#-----------------------------------------------------------8----------------------|
A#-10----------------------------------------/10---8---------------10-----8h10------|
F#--------7-----9-----9sb-----7-----------------------------------------------------|
C#----------------------------------------------------------------------------------|
G#----------------------------------------------------------------------------------|
C#----------------------------------------------------------------------------------|

[Verse 2]
Guitar 1: (1:28)
D#----------------------------------------------------------------------|
A#----------------------------------------------------------------------|
F#----------------------------------------------------------------------|
C#----------------------------------------------------------------------|
G#-0--0----------0----0--0----------0--0--------0--0----0--0------------|
C#-0--0----------0----0--0----------0--0--------0--0----0--0------------|
   *  *          *    *  *          *  *        *  *    *  *
   Fruit of life..                  I can hear the voices of the hive..    

Guitar 2: (1:28) Clean w/ Delay and Reverb
D#---------------------------------------------------------|
A#---10------------------------10--------------------------|
F#--------7---9---10---7-----------7----9---10----7--------|
C#---------------------------------------------------------|
G#---------------------------------------------------------|
C#-0------------------------0------------------------------|

Guitar 1: (1:34)
D#----------------------------------------------------------------------|
A#----------------------------------------------------------------------|
F#----------------------------------------------------------------------|
C#----------------------------------------------------------------------|
G#-8--8----------8----8--8----------0--0--------0----0--0--------3h5----|
C#-8--8----------8----8--8----------0--0--------0----0--0----3p0--------|
   *  *          *    *  *          *  *        *    *  *
                 Chemicals collide..

Guitar 2: (1:34)  Clean w/ Delay and Reverb
D#------------------------------------------------------------------|
A#------------------------------------------------------------------|
F#----7-----------10------9-----5/7-----10------9----------7--------|
C#---------10----------------------------------------10---------7---|
G#------------------------------------------------------------------|
C#-8----------------------------x----0------------------------------|

Guitar 1: (1:41)
D#----------------------------------------------------------------------|
A#----------------------------------------------------------------------|
F#----------------------------------------------------------------------|
C#----------------------------------------------------------------------|
G#-0--0----------0----0--0----------0--0--------0--0----0--0------------|
C#-0--0----------0----0--0----------0--0--------0--0----0--0------------|
   *  *          *    *  *          *  *        *  *    *  *
   Loaded smile..                   Light the way for those you left behind..

Guitar 2: (1:41)
D#---------------------------------------------------------|
A#---10------------------------10--------------------------|
F#--------7---9---10---7-----------7----9---10----7--------|
C#---------------------------------------------------------|
G#---------------------------------------------------------|
C#-0------------------------0------------------------------|

Guitar 1: (1:48)
D#----------------------------------------------------------------------|
A#----------------------------------------------------------------------|
F#----------------------------------------------------------------------|
C#----------------------------------------------------------------------|
G#-8--8----------8----8--8----------0--0--------0----0--0---------------|
C#-8--8----------8----8--8----------0--0--------0----0--0----3p0-8\7----|
   *  *          *    *  *          *  *        *    *  *
                 Set the earth on fire..

Guitar 2: (1:48) Clean w/ Delay and Reverb
D#------------------------------------------------------------------|
A#------------------------------------------------------------------|
F#----7-----------10------9-----5/7-----10------9----------7--------|
C#---------10----------------------------------------10---------7---|
G#------------------------------------------------------------------|
C#-8----------------------------x----0------------------------------|

Guitar 1: (1:55)
D#---------------------------------------------------------------------|
A#---------------------------------------------------------------------|
F#---------------------------------------------------------------------|
C#---------------------------------------------------------------------|
G#-5-5-5-5-5-5-5-5-5-5-5-5-5-5-5-5---8-8-8-8-8-8-8-8-8-8-8-8---X-X-X-X-|
C#-5-5-5-5-5-5-5-5-5-5-5-5-5-5-5-5---8-8-8-8-8-8-8-8-8-8-8-8---X-X-X-X-|
   * * * * * * * * * * * * * * * *   * * * * * * * * * * * *

Guitar 2: (1:55) Clean w/ Delay and Reverb
D#--------------------------------------------------------|
A#-----------------------------------------------8---10---|
F#------------10---9---------------7--------10------------|
C#----7---8----------------------------10-----------------|
G#--------------------------------------------------------|
C#--------------------------------------------------------|
            Cause I don't want enough, I want it all

[Chorus 2]
Guitar 1: (2:01)
D#--------------------------------------------------------------------------|
A#--------------------------------------------------------------------------|
F#--------------------------------------------------------------------------|
C#-0-----0-----0--0--7--7---7---7-----8-----8---8--8-------10--10---10---10-|
G#-0-----0-----0--0--7--7---7---7-----8-----8---8--8-------10--10---10---10-|
C#-0-----0-----0--0--7--7---7---7-----8-----8---8--8-------10--10---10---10-|
         Love left me hollow..                  I'm with you in the..

Guitar 2: (2:01)
D#----------------------------------------------------------------------------------|
A#----------------------------------------------------------------------------------|
F#-7-----7/10-101010-9-9-9-9-9-9-9-9--7-----7/10-10-10-10--12-12-12-12-12-12-12-12--|
C#-x-----x/x--x-x-x--x-x-x-x-x-x-x-x--x-----x/x--x--x--x---x--x--x--x--x--x--x--x---|
G#-5-----5/8--8-8-8--7-7-7-7-7-7-7-7--5-----5/8--8--8--8---10-10-10-10-10-10-10-10--|
C#----------------------------------------------------------------------------------|

Guitar 1: (2:08)
D#-----------------------------------------------------------------------------|
A#-----------------------------------------------------------------------------|
F#-----------------------------------------------------------------------------|
C#-0-----0-----0--0--7--7---7---7-----8-----8---8--8-------10--10--------------|
G#-0-----0-----0--0--7--7---7---7-----8-----8---8--8-------10--10--------------|
C#-0-----0-----0--0--7--7---7---7-----8-----8---8--8-------10--10-----0-7-3-7--|
         Cold, crippled and shallow, don't leave me here again!

Guitar 2: (2:08)
D#----------------------------------------------------------------------------------|
A#----------------------------------------------------------------------------------|
F#-7-----7/10-101010-9-9-9-9-9-9-9-9--7-----7/10-10-10-10--9-9-9-9-9-9-9-9----------|
C#-x-----x/x--x-x-x--x-x-x-x-x-x-x-x--x-----x/x--x--x--x---x-x-x-x-x-x-x-x----------|
G#-5-----5/8--8-8-8--7-7-7-7-7-7-7-7--5-----5/8--8--8--8---7-7-7-7-7-7-7-7----------|
C#----------------------------------------------------------------------------------|

Guitar 1: (2:15)
D#----------------------------------------------------------------------------------|
A#----------------------------------------------------------------------------------|
F#----------------------------------------------------------------------------------|
C#-0-----0-----0--0--3--3----3----3-----------10----10--10-10------10--10---10---10-|
G#-0-----0-----0--0--3--3----3----3-----------8-----8---8--8-------10--10---10---10-|
C#-0-----0-----0--0--3--3----3----3-----------8-----8---8--8-------10--10---10---10-|
               I can't go on                        You were bound to break me in!

Guitar 2: (2:15)
D#--------------------------------------------------------------------------------------------|
A#-10----10/13-13-13-13/15-15-15-15/17-17-17--18-18-18-18-17-17-17-17-13-13-13-13-15-15-15-15-|
F#-x-----x-/x--x--x--x-/x--x--x--x-/x--x--x---x--x--x--x--x--x--x--x--x--x--x--x--x--x--x--x--|
C#-7-----7-/10-10-10-10/12-12-12-12/14-14-14--15-15-15-15-14-14-14-14-10-10-10-10-12-12-12-12-|
G#--------------------------------------------------------------------------------------------|
C#--------------------------------------------------------------------------------------------|

Guitar 1: (2:21)
D#----------------------------------------------------------------------------|
A#----------------------------------------------------------------------------|
F#----------------------------------------------------------------------------|
C#-0-----0-----0--0--3--3----3----3-----------10----10--10-10------10--10---\-| slide down
G#-0-----0-----0--0--3--3----3----3-----------8-----8---8--8-------10--10---\-| until bridge
C#-0-----0-----0--0--3--3----3----3-----------8-----8---8--8-------10--10---\-|
               I come undone as you drag me down again!

Guitar 2: (2:21)
D#--------------------------------------------------------------------------------------------|
A#-10----10/13-13-13-13/15-15-15-15/17-17-17--18-18-18-18-17-17-17-17-13-13-13-13-15-15-15-15-|
F#-x-----x-/x--x--x--x-/x--x--x--x-/x--x--x---x--x--x--x--x--x--x--x--x--x--x--x--x--x--x--x--|
C#-7-----7-/10-10-10-10/12-12-12-12/14-14-14--15-15-15-15-14-14-14-14-10-10-10-10-12-12-12-12-|
G#--------------------------------------------------------------------------------------------|
C#--------------------------------------------------------------------------------------------|

[Bridge/Solo]
Guitar 1 & 2: (2:28)
D#-----------------------------------------------------------------------------|
A#-----------------------------------------------------------------------------|
F#-----------------------------------------------------------------------------|
C#----------------0---------------------------------------0--------------------|
G#-----------------------0---------------------------------------0----3--------|
C#-12-12-0----8-----7--\-0----3h5-3\2---0-0--12-------8-----7--\-0------3-0-3--|

Guitar 1 & 2 continued
D#-----------------------------------------------------------------------------|
A#-----------------------------------------------------------------------------|
F#-----------------------------------------------------------------------------|
C#----------------0---------------------8-----8--8--8-----8--8---8--7----10--7-|
G#-----------------------0--------------8-----8--8--8-----8--8---8--7----10--7-|
C#-12-12-0----8-----7--\-0----3h5-3\2---8-----8--8--8-----8--8---8--7----10--7-|

Guitar 1: (2:42)
D#-------------------------------------------------------------------------------|
A#-------------------------------------------------------------------------------|
F#-------------------------------------------------------------------------------|
C#----------------0-----------------------------------------0--------------------|
G#-----------------------0-----------------------------------------0----3--------|
C#-12-12-0----8-----7--\-0----3h5-3\2-----0-0-12--------8-----7--\-0------3-0-3--|

Guitar 2: (2:42)
D#----------------------------------------10b--------------------\----10h13p10----10-|
A#-10b---------------------10h13p10----10-13b----------------------------------13----|
F#-12b------------------------------12-----------------------------------------------|
C#-----------------------------------------------------------------------------------|
G#-----------------------------------------------------------------------------------|
C#-----------------------------------------------------------------------------------|

Guitar 1: (2:48)
D#----------------------------------------------------------------------------------------|
A#----------------------------------------------------------------------------------------|
F#----------------------------------------------------------------------------------------|
C#----------------0--------------------------------8-----8--8--8-----8--8---8--7----10--7-|
G#-----------------------0-------------------------8-----8--8--8-----8--8---8--7----10--7-|
C#-12-12-0----8-----7--\-0----3h5-3\2--------------8-----8--8--8-----8--8---8--7----10--7-|

Guitar 2: (2:48)
D#--------------------------------------------------|
A#-11-10--------------------------------------------|
F#-------10-9---------------------------10-9----10--|
C#------------12----10---12---12h14p12-------12-----|
G#--------------------------------------------------|
C#--------------------------------------------------|

Guitar 2 continued..
D#-13-12----------------12--15-13-12----------12-13---------------------------------------|
A#-------15----------15--------------15-13-15---------------------------------------------|
F#----------14----14---------------------------------12--10--9--9/10--9-------------------|
C#-------------15--------------------------------------------------------10--10/12--------|
G#----------------------------------------------------------------------------------------|
C#----------------------------------------------------------------------------------------|

[POST-BRIDGE/SOLO]
Guitar 1: (2:55)           
D#-----------------------------------------------------------|
A#-----------------------------------------------------------|
F#-----------------------------------------------------------|
C#-0------------------------8------------------8--7----10--7-|
G#-0------------------------8------------------8--7----10--7-|
C#-0------------------------8------------------8--7----10--7-|
                                             I come undone!
Guitar 2: (2:55)
D#--------------------------------------------(12)-|
A#-------------------------------------------------|
F#-------------9----9----9-/10-----10------10------|
C#----------------7----7---------8-------8---------|
G#-------------------------------------------------|
C#-------------------------------------------------|

[Chorus 3]
Guitar 1: (3:01)
D#--------------------------------------------------------------------------|
A#--------------------------------------------------------------------------|
F#--------------------------------------------------------------------------|
C#-0-----0-----0--0--7--7---7---7-----8-----8---8--8-------10--10---10---10-|
G#-0-----0-----0--0--7--7---7---7-----8-----8---8--8-------10--10---10---10-|
C#-0-----0-----0--0--7--7---7---7-----8-----8---8--8-------10--10---10---10-|
         Love left me hollow..                  I'm with you in the..

Guitar 2: (3:01)
D#-------------10-10-10-10-12-12-12-12-12-12-12-12-13-13-13-13-13-13-13-13-15-15-15-15-15-15-15-15-|
A#-10-10-10-10-------------------------------------------------------------------------------------|
F#-------------------------------------------------------------------------------------------------|
C#-------------------------------------------------------------------------------------------------|
G#-------------------------------------------------------------------------------------------------|
C#-------------------------------------------------------------------------------------------------|

Guitar 1: (3:08)
D#--------------------------------------------------------------------------------|
A#--------------------------------------------------------------------------------|
F#--------------------------------------------------------------------------------|
C#-0-----0-----0--0--7--7---7---7-----8-----8---8--8-------10--10--10--0h7--7--7--|
G#-0-----0-----0--0--7--7---7---7-----8-----8---8--8-------10--10--10--0h7--7--7--|
C#-0-----0-----0--0--7--7---7---7-----8-----8---8--8-------10--10--10--0h7--7--7--|
         Cold, crippled and shallow, don't leave me here again!

Guitar 2: (3:08)
D#-------------10-10-10-10-12-12-12-12-12-12-12-12-13-13-13-13-13-13-13-13-15-15-15-15-15-15-15-15-|
A#-10-10-10-10-------------------------------------------------------------------------------------|
F#-------------------------------------------------------------------------------------------------|
C#-------------------------------------------------------------------------------------------------|
G#-------------------------------------------------------------------------------------------------|
C#-------------------------------------------------------------------------------------------------|

Guitar 1: (3:15)
D#----------------------------------------------------------------------------------|
A#----------------------------------------------------------------------------------|
F#----------------------------------------------------------------------------------|
C#-0-----0-----0--0--3--3----3----3-----------10----10--10-10------10--10---10---10-|
G#-0-----0-----0--0--3--3----3----3-----------8-----8---8--8-------10--10---10---10-|
C#-0-----0-----0--0--3--3----3----3-----------8-----8---8--8-------10--10---10---10-|
               I can't go on                        You were bound to break me in!

Guitar 2: (3:15) [For the Lead, play each note FOUR times until the last four notes of Lead]
D#----------------------------------------------------------------------------------|
A#-10------------11----------10-----------------------------------------------------|
F#-------12-----------------------------------10----9----------12-----------10------|
C#----------------------------------------------------------------------------------|
G#----------------------------------------------------------------------------------|
C#----------------------------------------------------------------------------------|

Guitar 1: (3:22)
D#-----------------------------------------------------------------------------|
A#-----------------------------------------------------------------------------|
F#-----------------------------------------------------------------------------|
C#-0-----0-----0--0--3--3---3---3-----8-----8---8--8-------10--10-----0h7-7-7--|
G#-0-----0-----0--0--3--3---3---3-----8-----8---8--8-------10--10-----0h7-7-7--|
C#-0-----0-----0--0--3--3---3---3-----8-----8---8--8-------10--10-----0h7-7-7--|
               I come undone as you drag me down again!

Guitar 2: (3:22)
D#----------------------------------------------------------------------------------|
A#-10------------11----------10-----------------------------------------------------|
F#-------12-----------------------------------10----9----------12-----10--9--7--9---|
C#----------------------------------------------------------------------------------|
G#----------------------------------------------------------------------------------|
C#----------------------------------------------------------------------------------|

[Outro]
Guitar 1:
D#----------------------------------------------------------------------------------|
A#----------------------------------------------------------------------------------|
F#----------------------------------------------------------------------------------|
C#------------------------------------------10---10---10-10--x---7-7------------0---|
G#-----------------------3----------3h5-----8----8----8--8---x---5-5------------0---|
C#-0-12-8p0--8p7p0--3p0----5p0--3p0---------8----8----8--8---x---5-5---3h5-3/2--0---|

Guitar 2: Delay and Reverb
D#-----------------------------------------------------13-13-13-12-12-12------------|
A#-10--------------------------------------------------------------------13h15------|
F#--------7-----9-----9sb-----7---------------14---12---------------------------14--|
C#----------------------------------------------------------------------------------|
G#----------------------------------------------------------------------------------|
C#----------------------------------------------------------------------------------|

That's all she wrote!

This was difficult to tab, especially the Verse. I did my best! Let me know how it was.


************************************

| /    Slide up
| x    Dead note
| h    Hammer-on
| p    Pull-off
| \    Slide down
| b    Bend
| (n)  Ghost note
| *    Palm mute

************************************

            
            
Suggest correction
Creating personal tab
Creating personal tab
You can edit any tab online and save it as your Personal.

You can edit, replace or remove any tab part or add personal notes – all changes will be seen only by you.

Personal tabs can be accessed anytime from any device, even offline.
Learn more »
comments
print report bad tab
2 comments total.
0 reply
kidsnoopy159 10 Jun 18, 2015 09:53 AM, edited at 01:54 pm

For anyone who finds it hard to play the 12's in guitar 1, you can always just use the 5th fret on the 5th string as replacement, that's what I did. :P Excellent tab btw.

+1 reply
maarten_vangest 198 Jun 30, 2015 11:45 PM, edited on July 1 2015, 03:45 am

Very well tabbed, Love how you placed - in the solo section to show the structure (Making RS custom from it)

guest
You may want to rate the tab now too:
select rating
Wanna post a correction for this tab? Suggest correction