Oops, an error
Loading. Please wait.
We have an official Polyamorous tab made by UG professional guitarists. Check out the tab »
×
13,058 views 33 this week
no commentswrite comment
1 2 3 4 5
x 6
add to favorites
×
Save as Personal and add changes to this tab that will be seen only by you. Learn more ›
×
You can save this tab as Personal to edit and correct it or add notes. All changes will be seen only by you. Learn more »
launch autoscroll
font size
0
reset
how to read this tab
guitar tuner
edit
Autoscroll
slow
fast
+/-
esc
set tempo
stop
Polyamorous
Breaking Benjamin
Saturate (2002)

Polyamorous:  written by Benjamin Burnley, Aaron Fink, Mark James Klepaski,
and Jeremy Hummel

GTR I - Drop Db Tuning "Benjamin Burnley" (eb,Bb,Gb,Db,Ab,Db)
GTR II - Drop Db Tuning "Aaron Fink" (eb,Bb,Gb,Db,Ab,Db)
GTR III - Drop Db Tuning "Fills" (eb,Bb,Gb,Db,Ab,Db)

Intro

   GTR III (Dist. with Phaser/Delay)
eb|-------------------------------------------------|
Bb|-------------------------------------------------|
Gb|-------------------------------------------------|
Db|--9-----------------------5----------------------|
Ab|--9-----------------------5----------------------|
Db|--9-----------------------5----------------------|

   GTR I,II
eb|-------------------------------------------------|
Bb|-------------------------------------------------|
Gb|-------------------------------------------------|
Db|--------------------------fbk--------------------|
Ab|--------------------------fbk--------------------|
Db|--------------------------fbk--------------------|
  |
  |GTR III
eb|-------------------------------------------------|
Bb|-------------------------------------------------|
Gb|-------------------------------------------------|
Db|--9-----------------------5----------------------|
Ab|--9-----------------------5----------------------|
Db|--9-----------------------5----------------------|

Main Riff

   GTR I,II
eb|-------------------------------------------------|
Bb|-------------------------------------------------|
Gb|-------------------------------------------------|
Db|--9--9-----9--0--0-----0--5--5-----0--5--5-----0-|
Ab|--9--9-----9--0--0-----0--5--5-----0--5--5-----0-|
Db|--9--9-----9--0--0-----0--5--5-----0--5--5-----0-|

   GTR I,II
eb|-------------------------------------------------|
Bb|-------------------------------------------------|
Gb|-------------------------------------------------|
Db|--9--9-----9--0--0-----0--5--5-----0--5--5-----0-|
Ab|--9--9-----9--0--0-----0--5--5-----0--5--5-----0-|
Db|--9--9-----9--0--0-----0--5--5-----0--5--5-----0-|

   GTR I,II
eb|-------------------------------------------------|
Bb|-------------------------------------------------|
Gb|-------------------------------------------------|
Db|--9--9-----9--0--0-----0--5--5-----0--5--5-----0-|
Ab|--9--9-----9--0--0-----0--5--5-----0--5--5-----0-|
Db|--9--9-----9--0--0-----0--5--5-----0--5--5-----0-|

   GTR I,II
eb|-------------------------------------------------|
Bb|-------------------------------------------------|
Gb|-------------------------------------------------|
Db|--9--9-----9--0--0-----0--5--5-----0--5--4--0--4-|
Ab|--9--9-----9--0--0-----0--5--5-----0--5--4--0--4-|
Db|--9--9-----9--0--0-----0--5--5-----0--5--4--0--4-|

Pre Verse

   GTR I,II
eb|-------------------------------------------------|
Bb|-------------------------------------------------|
Gb|-------------------------------------------------|
Db|--9-----9-----------------9-----9----------------|
Ab|--9-----9----10-10--9--9--9-----9----12-12-10-10-|
Db|--9-----9-----------------9-----9----------------|

   GTR I,II
eb|-------------------------------------------------|
Bb|-------------------------------------------------|
Gb|-------------------------------------------------|
Db|--9-----9-----------------9-----9----------------|
Ab|--9-----9----10-10--9--9--9-----9----12-12-10-10-|
Db|--9-----9-----------------9-----9----------------|

   GTR I,II
eb|-------------------------------------------------|
Bb|-------------------------------------------------|
Gb|-------------------------------------------------|
Db|--9-----9-----------------9-----9----------------|
Ab|--9-----9----10-10--9--9--9-----9----12-12-10-10-|
Db|--9-----9-----------------9-----9----------------|

   GTR I,II
eb|-------------------------------------------------|
Bb|-------------------------------------------------|
Gb|-------------------------------------------------|
Db|--9-----9-----------------9-----9----------------|
Ab|--9-----9----10-10--9--9--9-----9----12-12-10-10-|
Db|--9-----9-----------------9-----9----------------|

Verse

   GTR II
eb|-------------------------------------------------|
Bb|-------------------------------------------------|
Gb|-------------------------------------------------|
Db|--------------5--5--4--4--------------5--5--4--4-|
Ab|--2-----2----------------------------------------|
Db|--------------------------4-----4----------------|
     .     .     .  .  .  .  .     .     .  .  .  .

   GTR II
eb|-------------------------------------------------|
Bb|-------------------------------------------------|
Gb|-------------------------------------------------|
Db|--------------4--4--5--5--------------5--5--4--4-|
Ab|-------------------------------------------------|
Db|--5-----5-----------------2-----2----------------|
     .     .     .  .  .  .  .     .     .  .  .  .

   GTR II
eb|-------------------------------------------------|
Bb|-------------------------------------------------|
Gb|-------------------------------------------------|
Db|--------------5--5--4--4--------------5--5--4--4-|
Ab|--2-----2----------------------------------------|
Db|--------------------------4-----4----------------|
     .     .     .  .  .  .  .     .     .  .  .  .

   GTR II
eb|-------------------------------------------------|
Bb|-------------------------------------------------|
Gb|-------------------------------------------------|
Db|--------------4--4--5--5--------------5--5--4--4-|
Ab|-------------------------------------------------|
Db|--5-----5-----------------2-----2----------------|
     .     .     .  .  .  .  .     .     .  .  .  .

   GTR II
eb|-------------------------------------------------|
Bb|-------------------------------------------------|
Gb|-------------------------------------------------|
Db|--------------5--5--4--4--------------5--5--4--4-|
Ab|--2-----2----------------------------------------|
Db|--------------------------4-----4----------------|
     .     .     .  .  .  .  .     .     .  .  .  .

   GTR II
eb|-------------------------------------------------|
Bb|-------------------------------------------------|
Gb|-------------------------------------------------|
Db|--------------4--4--5--5--------------5--5--4--4-|
Ab|-------------------------------------------------|
Db|--5-----5-----------------2-----2----------------|
     .     .     .  .  .  .  .     .     .  .  .  .

   GTR II
eb|-------------------------------------------------|
Bb|-------------------------------------------------|
Gb|-------------------------------------------------|
Db|--------------5--5--4--4--------------5--5--4--4-|
Ab|--2-----2----------------------------------------|
Db|--------------------------4-----4----------------|
     .     .     .  .  .  .  .     .     .  .  .  .

   GTR II
eb|-------------------------------------------------|
Bb|-------------------------------------------------|
Gb|-------------------------------------------------|
Db|--------------4--4--5--5--------------4----------|
Ab|--------------------------------------4----------|
Db|--5-----5-----------------2--0--2-----4----------|
     .     .     .  .  .  .  .  .  .               

Chorus

   GTR I,II
eb|-------------------------------------------------|
Bb|-------------------------------------------------|
Gb|-------------------------------------------------|
Db|--0-----------7-----------5--------0--5p-4--0h-4-|
Ab|--0-----------7-----------5--------0--5p-4--0h-4-|
Db|--0-----------7-----------5--------0--5p-4--0h-4-|

   GTR I,II
eb|-------------------------------------------------|
Bb|-------------------------------------------------|
Gb|-------------------------------------------------|
Db|--0-----------7-----------5--------0--5p-4--0h-4-|
Ab|--0-----------7-----------5--------0--5p-4--0h-4-|
Db|--0-----------7-----------5--------0--5p-4--0h-4-|

   GTR I,II
eb|-------------------------------------------------|
Bb|-------------------------------------------------|
Gb|-------------------------------------------------|
Db|--0-----------7-----------5-----------x--x-----x-|
Ab|--0-----------7-----------5-----------x--x-----x-|
Db|--0-----------7-----------5-----------x--x-----x-|

   GTR I,II
eb|-------------------------------------------------|
Bb|-------------------------------------------------|
Gb|-------------------------------------------------|
Db|--0-----------7-----------7--------0--5p-4--0h-4-|
Ab|--0-----------4-----------5--------0--5p-4--0h-4-|
Db|--0-----------4-----------5--------0--5p-4--0h-4-|

Pre Verse

   GTR I,II
eb|-------------------------------------------------|
Bb|-------------------------------------------------|
Gb|-------------------------------------------------|
Db|--9-----9-----------------9-----9----------------|
Ab|--9-----9----10-10--9--9--9-----9----12-12-10-10-|
Db|--9-----9-----------------9-----9----------------|

   GTR I,II
eb|-------------------------------------------------|
Bb|-------------------------------------------------|
Gb|-------------------------------------------------|
Db|--9-----9-----------------9-----9----------------|
Ab|--9-----9----10-10--9--9--9-----9----12-12-10-10-|
Db|--9-----9-----------------9-----9----------------|

Verse

   GTR II
eb|-------------------------------------------------|
Bb|-------------------------------------------------|
Gb|-------------------------------------------------|
Db|--------------5--5--4--4--------------5--5--4--4-|
Ab|--2-----2----------------------------------------|
Db|--------------------------4-----4----------------|
     .     .     .  .  .  .  .     .     .  .  .  .

   GTR II
eb|-------------------------------------------------|
Bb|-------------------------------------------------|
Gb|-------------------------------------------------|
Db|--------------4--4--5--5--------------5--5--4--4-|
Ab|-------------------------------------------------|
Db|--5-----5-----------------2-----2----------------|
     .     .     .  .  .  .  .     .     .  .  .  .

   GTR II
eb|-------------------------------------------------|
Bb|-------------------------------------------------|
Gb|-------------------------------------------------|
Db|--------------5--5--4--4--------------5--5--4--4-|
Ab|--2-----2----------------------------------------|
Db|--------------------------4-----4----------------|
     .     .     .  .  .  .  .     .     .  .  .  .

   GTR II
eb|-------------------------------------------------|
Bb|-------------------------------------------------|
Gb|-------------------------------------------------|
Db|--------------4--4--5--5--------------5--5--4--4-|
Ab|-------------------------------------------------|
Db|--5-----5-----------------2-----2----------------|
     .     .     .  .  .  .  .     .     .  .  .  .

   GTR II
eb|-------------------------------------------------|
Bb|-------------------------------------------------|
Gb|-------------------------------------------------|
Db|--------------5--5--4--4--------------5--5--4--4-|
Ab|--2-----2----------------------------------------|
Db|--------------------------4-----4----------------|
     .     .     .  .  .  .  .     .     .  .  .  .

   GTR II
eb|-------------------------------------------------|
Bb|-------------------------------------------------|
Gb|-------------------------------------------------|
Db|--------------4--4--5--5--------------5--5--4--4-|
Ab|-------------------------------------------------|
Db|--5-----5-----------------2-----2----------------|
     .     .     .  .  .  .  .     .     .  .  .  .

   GTR II
eb|-------------------------------------------------|
Bb|-------------------------------------------------|
Gb|-------------------------------------------------|
Db|--------------5--5--4--4--------------5--5--4--4-|
Ab|--2-----2----------------------------------------|
Db|--------------------------4-----4----------------|
     .     .     .  .  .  .  .     .     .  .  .  .

   GTR II
eb|-------------------------------------------------|
Bb|-------------------------------------------------|
Gb|-------------------------------------------------|
Db|--------------4--4--5--5--------------4----------|
Ab|--------------------------------------4----------|
Db|--5-----5-----------------2--0--2-----4----------|
     .     .     .  .  .  .  .  .  .               

Chorus

   GTR I,II
eb|-------------------------------------------------|
Bb|-------------------------------------------------|
Gb|-------------------------------------------------|
Db|--0-----------7-----------5--------0--5p-4--0h-4-|
Ab|--0-----------7-----------5--------0--5p-4--0h-4-|
Db|--0-----------7-----------5--------0--5p-4--0h-4-|

   GTR I,II
eb|-------------------------------------------------|
Bb|-------------------------------------------------|
Gb|-------------------------------------------------|
Db|--0-----------7-----------5--------0--5p-4--0h-4-|
Ab|--0-----------7-----------5--------0--5p-4--0h-4-|
Db|--0-----------7-----------5--------0--5p-4--0h-4-|

   GTR I,II
eb|-------------------------------------------------|
Bb|-------------------------------------------------|
Gb|-------------------------------------------------|
Db|--0-----------7-----------5-----------x--x-----x-|
Ab|--0-----------7-----------5-----------x--x-----x-|
Db|--0-----------7-----------5-----------x--x-----x-|

   GTR I,II
eb|-------------------------------------------------|
Bb|-------------------------------------------------|
Gb|-------------------------------------------------|
Db|--0-----------7-----------7--------0--5p-4--0h-4-|
Ab|--0-----------4-----------5--------0--5p-4--0h-4-|
Db|--0-----------4-----------5--------0--5p-4--0h-4-|

   GTR I,II
eb|-------------------------------------------------|
Bb|-------------------------------------------------|
Gb|-------------------------------------------------|
Db|--0-----------7-----------5--------0--5p-4--0h-4-|
Ab|--0-----------7-----------5--------0--5p-4--0h-4-|
Db|--0-----------7-----------5--------0--5p-4--0h-4-|

   GTR I,II
eb|-------------------------------------------------|
Bb|-------------------------------------------------|
Gb|-------------------------------------------------|
Db|--0-----------7-----------5--------0--5p-4--0h-4-|
Ab|--0-----------7-----------5--------0--5p-4--0h-4-|
Db|--0-----------7-----------5--------0--5p-4--0h-4-|

   GTR I,II
eb|-------------------------------------------------|
Bb|-------------------------------------------------|
Gb|-------------------------------------------------|
Db|--0-----------7-----------5-----------x--x-----x-|
Ab|--0-----------7-----------5-----------x--x-----x-|
Db|--0-----------7-----------5-----------x--x-----x-|

   GTR I,II
eb|-------------------------------------------------|
Bb|-------------------------------------------------|
Gb|-------------------------------------------------|
Db|--0-----------7-----------7--------0--5p-4--0h-4-|
Ab|--0-----------4-----------5--------0--5p-4--0h-4-|
Db|--0-----------4-----------5--------0--5p-4--0h-4-|

Bridge

   GTR I
eb|-------------------------------------------------|
Bb|-------------------------------------------------|
Gb|--4-----------------------6-----------7----------|
Db|--x-----------------------x-----------x----------|
Ab|--2-----------------------4-----------5----------|
Db|-------------------------------------------------|
  |
  |GTR II
eb|-------------------------------------------------|
Bb|-------------------------------------------------|
Gb|--4-----------------------6-----------7----------|
Db|--4-----------------------6-----------7----------|
Ab|--2-----------------------4-----------5----------|
Db|-------------------------------------------------|

   GTR I
eb|-------------------------------------------------|
Bb|-------------------------------------------------|
Gb|--6-----------------------7-----------6----------|
Db|--x-----------------------x-----------x----------|
Ab|--4-----------------------5-----------4----------|
Db|-------------------------------------------------|
  |
  |GTR II
eb|-------------------------------------------------|
Bb|-------------------------------------------------|
Gb|-------------------------------------------------|
Db|--4-----------------------7-----------7----------|
Ab|--4-----------------------5-----------4----------|
Db|--4-----------------------5-----------4----------|

   GTR I
eb|-------------------------------------------------|
Bb|-------------------------------------------------|
Gb|--7-----------------------7-----------6----------|
Db|--x-----------------------x-----------x----------|
Ab|--5-----------------------5-----------4----------|
Db|-------------------------------------------------|
  |
  |GTR II
eb|-------------------------------------------------|
Bb|-------------------------------------------------|
Gb|-------------------------------------------------|
Db|--7-----------------------7-----------7----------|
Ab|--5-----------------------5-----------4----------|
Db|--5-----------------------5-----------4----------|

   GTR I
eb|-------------------------------------------------|
Bb|-------------------------------------------------|
Gb|--4-----------------------6-----------4----------|
Db|--x-----------------------x-----------x----------|
Ab|--2-----------------------4-----------2----------|
Db|-------------------------------------------------|
  |
  |GTR II
eb|-------------------------------------------------|
Bb|-------------------------------------------------|
Gb|-------------------------------------------------|
Db|--2-----------------------7-----------2----------|
Ab|--2-----------------------4-----------2----------|
Db|--2-----------------------4-----------2----------|

   GTR I
eb|-------------------------------------------------|
Bb|-------------------------------------------------|
Gb|--4-----------------------6-----------7----------|
Db|--x-----------------------x-----------x----------|
Ab|--2-----------------------4-----------5----------|
Db|-------------------------------------------------|
  |
  |GTR II
eb|-------------------------------------------------|
Bb|-------------------------------------------------|
Gb|--4-----------------------6-----------7----------|
Db|--4-----------------------6-----------7----------|
Ab|--2-----------------------4-----------5----------|
Db|-------------------------------------------------|

   GTR I
eb|-------------------------------------------------|
Bb|-------------------------------------------------|
Gb|--6-----------------------7-----------6----------|
Db|--x-----------------------x-----------x----------|
Ab|--4-----------------------5-----------4----------|
Db|-------------------------------------------------|
  |
  |GTR II
eb|-------------------------------------------------|
Bb|-------------------------------------------------|
Gb|-------------------------------------------------|
Db|--4-----------------------7-----------7----------|
Ab|--4-----------------------5-----------4----------|
Db|--4-----------------------5-----------4----------|

   GTR I
eb|-------------------------------------------------|
Bb|-------------------------------------------------|
Gb|--7-----------------------7-----------6----------|
Db|--x-----------------------x-----------x----------|
Ab|--5-----------------------5-----------4----------|
Db|-------------------------------------------------|
  |
  |GTR II
eb|-------------------------------------------------|
Bb|-------------------------------------------------|
Gb|-------------------------------------------------|
Db|--7-----------------------7-----------7----------|
Ab|--5-----------------------5-----------4----------|
Db|--5-----------------------5-----------4----------|

   GTR I
eb|-------------------------------------------------|
Bb|-------------------------------------------------|
Gb|--4-----------------------6-----------4----------|
Db|--x-----------------------x-----------x----------|
Ab|--2-----------------------4-----------2----------|
Db|-------------------------------------------------|
  |
  |GTR II
eb|-------------------------------------------------|
Bb|-------------------------------------------------|
Gb|-------------------------------------------------|
Db|--2-----------------------7-----------2----------|
Ab|--2-----------------------4-----------2----------|
Db|--2-----------------------4-----------2----------|

Bridge 2

   GTR I,II
eb|-------------------------------------------------|
Bb|-------------------------------------------------|
Gb|-------------------------------------------------|
Db|-------------------------------------------------|
Ab|--2--2--2--2--2--2--2--2--4--4--4--4--5--5--5--5-|
Db|-------------------------------------------------|
     .  .  .  .  .  .  .  .  .  .  .  .  .  .  .  .

   GTR I,II
eb|-------------------------------------------------|
Bb|-------------------------------------------------|
Gb|-------------------------------------------------|
Db|-------------------------------------------------|
Ab|-------------------------------------------------|
Db|--4--4--4--4--4--4--4--4--5--5--5--5--4--4--4--4-|
     .  .  .  .  .  .  .  .  .  .  .  .  .  .  .  .

   GTR I,II
eb|-------------------------------------------------|
Bb|-------------------------------------------------|
Gb|-------------------------------------------------|
Db|-------------------------------------------------|
Ab|-------------------------------------------------|
Db|--5--5--5--5--5--5--5--5--5--5--5--5--4--4--4--4-|
     .  .  .  .  .  .  .  .  .  .  .  .  .  .  .  .

   GTR I,II
eb|-------------------------------------------------|
Bb|-------------------------------------------------|
Gb|-------------------------------------------------|
Db|-------------------------------------------------|
Ab|-------------------------------------------------|
Db|--2--2--2--2--2--2--2--2--4--4--4--4--2--2--2--2-|
     .  .  .  .  .  .  .  .  .  .  .  .  .  .  .  .

   GTR I (with Wah)
eb|-------------------------------------------------|
Bb|-------------------------------------------------|
Gb|--4--4--4--4--4--4--4--4--6--6--6--6--7--7--7--7-|
Db|--x--x--x--x--x--x--x--x--x--x--x--x--x--x--x--x-|
Ab|--2--2--2--2--2--2--2--2--4--4--4--4--5--5--5--5-|
Db|-------------------------------------------------|
  |
  |GTR II (with Wah)
eb|-------------------------------------------------|
Bb|-------------------------------------------------|
Gb|--4--4--4--4--4--4--4--4--6--6--6--6--7--7--7--7-|
Db|--x--x--x--x--x--x--x--x--x--x--x--x--x--x--x--x-|
Ab|--2--2--2--2--2--2--2--2--4--4--4--4--5--5--5--5-|
Db|-------------------------------------------------|

   GTR I
eb|-------------------------------------------------|
Bb|-------------------------------------------------|
Gb|--6--6--6--6--6--6--6--6--7--7--7--7--6--6--6--6-|
Db|--x--x--x--x--x--x--x--x--x--x--x--x--x--x--x--x-|
Ab|--4--4--4--4--4--4--4--4--5--5--5--5--4--4--4--4-|
Db|-------------------------------------------------|
  |
  |GTR II
eb|-------------------------------------------------|
Bb|-------------------------------------------------|
Gb|-------------------------------------------------|
Db|--4--4--4--4--4--4--4--4--7--7--7--7--7--7--7--7-|
Ab|--4--4--4--4--4--4--4--4--5--5--5--5--4--4--4--4-|
Db|--4--4--4--4--4--4--4--4--5--5--5--5--4--4--4--4-|

   GTR I
eb|-------------------------------------------------|
Bb|-------------------------------------------------|
Gb|--7--7--7--7--7--7--7--7--7--7--7--7--6--6--6--6-|
Db|--x--x--x--x--x--x--x--x--x--x--x--x--x--x--x--x-|
Ab|--5--5--5--5--5--5--5--5--5--5--5--5--4--4--4--4-|
Db|-------------------------------------------------|
  |
  |GTR II
eb|-------------------------------------------------|
Bb|-------------------------------------------------|
Gb|-------------------------------------------------|
Db|--7--7--7--7--7--7--7--7--7--7--7--7--7--7--7--7-|
Ab|--5--5--5--5--5--5--5--5--5--5--5--5--4--4--4--4-|
Db|--5--5--5--5--5--5--5--5--5--5--5--5--4--4--4--4-|

   GTR I
eb|-------------------------------------------------|
Bb|-------------------------------------------------|
Gb|--4--4--4--4--4--4--4--4--6--6--6--6--4--4--4--4-|
Db|--x--x--x--x--x--x--x--x--x--x--x--x--x--x--x--x-|
Ab|--2--2--2--2--2--2--2--2--4--4--4--4--2--2--2--2-|
Db|-------------------------------------------------|
  |
  |GTR II
eb|-------------------------------------------------|
Bb|-------------------------------------------------|
Gb|-------------------------------------------------|
Db|--2--2--2--2--2--2--2--2--7--7--7--7--2--2--2--2-|
Ab|--2--2--2--2--2--2--2--2--4--4--4--4--2--2--2--2-|
Db|--2--2--2--2--2--2--2--2--4--4--4--4--2--2--2--2-|

Bridge 3

   GTR I,II
eb|-------------------------------------------------|
Bb|-------------------------------------------------|
Gb|-------------------------------------------------|
Db|--0-----0-----5p-4--0h-4--0-----0-----5p-4--0h-4-|
Ab|--0-----0-----5p-4--0h-4--0-----0-----5p-4--0h-4-|
Db|--0-----0-----5p-4--0h-4--0-----0-----5p-4--0h-4-|
  |
  |GTR III (with wah)
eb|-------------------------------------------------|
Bb|-------------------------------------------------|
Gb|--7--7--7--7--7--7--7--7--7--7--7--7--7--7--7--7-|
Db|--x--x--x--x--x--x--x--x--x--x--x--x--x--x--x--x-|
Ab|--5--5--5--5--5--5--5--5--5--5--5--5--5--5--5--5-|
Db|-------------------------------------------------|

   GTR I,II
eb|-------------------------------------------------|
Bb|-------------------------------------------------|
Gb|-------------------------------------------------|
Db|--0-----0-----5p-4--0h-4--0----------------------|
Ab|--0-----0-----5p-4--0h-4--0----------------------|
Db|--0-----0-----5p-4--0h-4--0----------------------|
  |
  |GTR III 
eb|-------------------------------------------------|
Bb|-------------------------------------------------|
Gb|--7--7--7--7--7--7--7--7--7----------------------|
Db|--x--x--x--x--x--x--x--x--x----------------------|
Ab|--5--5--5--5--5--5--5--5--5----------------------|
Db|-------------------------------------------------|

Chorus

   GTR I,II
eb|-------------------------------------------------|
Bb|-------------------------------------------------|
Gb|-------------------------------------------------|
Db|--0-----------7-----------5--------0--5p-4--0h-4-|
Ab|--0-----------7-----------5--------0--5p-4--0h-4-|
Db|--0-----------7-----------5--------0--5p-4--0h-4-|

   GTR I,II
eb|-------------------------------------------------|
Bb|-------------------------------------------------|
Gb|-------------------------------------------------|
Db|--0-----------7-----------5--------0--5p-4--0h-4-|
Ab|--0-----------7-----------5--------0--5p-4--0h-4-|
Db|--0-----------7-----------5--------0--5p-4--0h-4-|

   GTR I,II
eb|-------------------------------------------------|
Bb|-------------------------------------------------|
Gb|-------------------------------------------------|
Db|--0-----------7-----------5-----------x--x-----x-|
Ab|--0-----------7-----------5-----------x--x-----x-|
Db|--0-----------7-----------5-----------x--x-----x-|

   GTR I,II
eb|-------------------------------------------------|
Bb|-------------------------------------------------|
Gb|-------------------------------------------------|
Db|--0-----------7-----------7--------0--5p-4--0h-4-|
Ab|--0-----------4-----------5--------0--5p-4--0h-4-|
Db|--0-----------4-----------5--------0--5p-4--0h-4-|

   GTR I,II
eb|-------------------------------------------------|
Bb|-------------------------------------------------|
Gb|-------------------------------------------------|
Db|--0-----------7-----------5--------0--5p-4--0h-4-|
Ab|--0-----------7-----------5--------0--5p-4--0h-4-|
Db|--0-----------7-----------5--------0--5p-4--0h-4-|

   GTR I,II
eb|-------------------------------------------------|
Bb|-------------------------------------------------|
Gb|-------------------------------------------------|
Db|--0-----------7-----------5--------0--5p-4--0h-4-|
Ab|--0-----------7-----------5--------0--5p-4--0h-4-|
Db|--0-----------7-----------5--------0--5p-4--0h-4-|

   GTR I,II
eb|-------------------------------------------------|
Bb|-------------------------------------------------|
Gb|-------------------------------------------------|
Db|--0-----------7-----------5-----------x--x-----x-|
Ab|--0-----------7-----------5-----------x--x-----x-|
Db|--0-----------7-----------5-----------x--x-----x-|

   GTR I,II
eb|-------------------------------------------------|
Bb|-------------------------------------------------|
Gb|-------------------------------------------------|
Db|--0-----------7-----------7--------0--5p-4--0h-4-|
Ab|--0-----------4-----------5--------0--5p-4--0h-4-|
Db|--0-----------4-----------5--------0--5p-4--0h-4-|

Outro

   GTR I
eb|-------------------------------------------------|
Bb|-------------------------------------------------|
Gb|-------------------------------------------------|
Db|--0-----------7-----------7-----------x--x-----x-|
Ab|--0-----------4-----------5-----------x--x-----x-|
Db|--0-----------4-----------5-----------x--x-----x-|
  |
  |GTR II
eb|-------------------------------------------------|
Bb|-------------------------------------------------|
Gb|--7--7-11-11--9--9-11-11-12-12-11-11-------------|
Db|-------------------------------------------------|
Ab|-------------------------------------------------|
Db|-------------------------------------------------|
  |
  |GTR III (distortion)
eb|-------------------------------------------------|
Bb|--3--3--7--7--5--5--7--7--8--8--7--7-------------|
Gb|-------------------------------------------------|
Db|-------------------------------------------------|
Ab|-------------------------------------------------|
Db|-------------------------------------------------|

   GTR I
eb|-------------------------------------------------|
Bb|-------------------------------------------------|
Gb|-------------------------------------------------|
Db|--0-----------7-----------5--------0--5p-4--0h-4-|
Ab|--0-----------7-----------5--------0--5p-4--0h-4-|
Db|--0-----------7-----------5--------0--5p-4--0h-4-|
  |
  |GTR II
eb|-------------------------------------------------|
Bb|-------------------------------------------------|
Gb|--7--7-11-11--9--9-11-11-12-12-11-11--9--9-11-11-|
Db|-------------------------------------------------|
Ab|-------------------------------------------------|
Db|-------------------------------------------------|
  |
  |GTR III 
eb|-------------------------------------------------|
Bb|--3--3--7--7--5--5--7--7--8--8--7--7--5--5--7--7-|
Gb|-------------------------------------------------|
Db|-------------------------------------------------|
Ab|-------------------------------------------------|
Db|-------------------------------------------------|

   GTR I
eb|-------------------------------------------------|
Bb|-------------------------------------------------|
Gb|-------------------------------------------------|
Db|--0-----------7-----------7-----------x--x-----x-|
Ab|--0-----------4-----------5-----------x--x-----x-|
Db|--0-----------4-----------5-----------x--x-----x-|
  |
  |GTR II
eb|-------------------------------------------------|
Bb|-------------------------------------------------|
Gb|--7--7-11-11--9--9-11-11-12-12-11-11-------------|
Db|-------------------------------------------------|
Ab|-------------------------------------------------|
Db|-------------------------------------------------|
  |
  |GTR III
eb|-------------------------------------------------|
Bb|--3--3--7--7--5--5--7--7--8--8--7--7-------------|
Gb|-------------------------------------------------|
Db|-------------------------------------------------|
Ab|-------------------------------------------------|
Db|-------------------------------------------------|

   GTR I
eb|-------------------------------------------------|
Bb|-------------------------------------------------|
Gb|-------------------------------------------------|
Db|--0-----------7-----------5--------0--5p-4--0h-4-|
Ab|--0-----------7-----------5--------0--5p-4--0h-4-|
Db|--0-----------7-----------5--------0--5p-4--0h-4-|
  |
  |GTR II
eb|-------------------------------------------------|
Bb|-------------------------------------------------|
Gb|--7--7-11-11--9--9-11-11-12-12-11-11--9--9-11-11-|
Db|-------------------------------------------------|
Ab|-------------------------------------------------|
Db|-------------------------------------------------|
  |
  |GTR III 
eb|-------------------------------------------------|
Bb|--3--3--7--7--5--5--7--7--8--8--7--7--5--5--7--7-|
Gb|-------------------------------------------------|
Db|-------------------------------------------------|
Ab|-------------------------------------------------|
Db|-------------------------------------------------|

Outro 2

   GTR I,II
eb|-------------------------------------------------|
Bb|-------------------------------------------------|
Gb|-------------------------------------------------|
Db|--9-----9-----------------9-----9----------------|
Ab|--9-----9----10-10--9--9--9-----9----12-12-10-10-|
Db|--9-----9-----------------9-----9----------------|

   GTR I,II
eb|-------------------------------------------------|
Bb|-------------------------------------------------|
Gb|-------------------------------------------------|
Db|--9-----9-----------------9\---------------------|
Ab|--9-----9----10-10--9--9--9\---------------------|
Db|--9-----9-----------------9\---------------------|


| b  bend
| r  release bend
|PH. pinch harmonic
|fbk feedback
| .  palm-mute
| /  slide up
| \  slide down
| h  hammer-on
| p  pull-off
| ~  vibrato
| +  harmonic
| x  Mute note
===============================================================================

            
            
Suggest correction
Creating personal tab
Creating personal tab
You can edit any tab online and save it as your Personal.

You can edit, replace or remove any tab part or add personal notes – all changes will be seen only by you.

Personal tabs can be accessed anytime from any device, even offline.
Learn more »
comments
print report bad tab
guest
You may want to rate the tab now too:
select rating
Wanna post a correction for this tab? Suggest correction