Oops, an error
Loading. Please wait.

Simple Design bass

version 1
version 1

Whole song

Interactive

2,650 views 3 this week
1 commentread comment
1 2 3 4 5
2 more votes to show rating
add to favorites
×
Save as Personal and add changes to this tab that will be seen only by you. Learn more ›
×
You can save this tab as Personal to edit and correct it or add notes. All changes will be seen only by you. Learn more »
launch autoscroll
font size
0
reset
guitar tuner
edit
Autoscroll
slow
fast
+/-
esc
set tempo
stop
Author
"Simple Design" Breaking Benjamin

ok, so this is my attempt at tabbing it for a 4 string, i am well aware that they used a 
string, so naturally some will be off, but no one else tabbed it so i thought i would 
hopefully this is helpful to anyone trying to tab this song any comments are appreciated


Intro
F|-----------------------------------------|     |---------|
C|-----------------------------------------|     |---------|
G|-3-2-0-----------------3h5-----0p3p5h3p0-|     |----5----|
C|-------5-0-3---0-0-0-0-----0-0-----------| x3  |-0-----3-|

Intro 2
F|---------5-------------|
C|-----------------------|
G|--------------9-9-9-9--|
C|-0-0-10----0-0---------|

Verse
F|--------5-------------|
C|----------------------|
G|----------------------|
C|-0-0-3----3-3-1-1-0-0-|

Intro 2 x3

Pre-chorus
|------------|
|------------|
|------------|
|-10-0-0-7/--|

Chorus
F|------5-----------------------------------------------------------------|
C|------------------------------------------------------------------------|
G|-----------------------------------------------------4-2----------------|
C|0-0000--7-777777--4-4444--5-555555-0-0000--7-777777------4-5--0-5-0-5-7-|

Intro 2 x3
Verse
Intro x3
Pre-Chorus
Chorus

Break
F|-------------|
C|-------------|
G|----3---2----|
C|-0---------5-|

Part 2
F|-----------------------------------------------------------------|
C|-----------------------------------------------------------------|
G|-0-0-0-0-0-0-0-0-3-3-3-3-3-3-3-3-5-5-5-5-5-5-5-5-3-3-3-3-3-3-3-3-|
C|-----------------------------------------------------------------|

Part 3 (im not sure if you play the runs on bass)
F|------------------------------------------------------------|
C|------------------------------------------------------------|
G|-------------------5--------------------------5---------3h5-|
C|-0-0-0---0-0-0-------3p0-3---0-0-0---0-0-0------3p0-3h5-----|

F|------------------------------------------------------------------------7------|
C|-------------------------------------------------------------------------------|
G|-------------------------------------------------------------------------------|
C|-0-0-0-0-7-7-7-7-4-4-4-4-5-5-5-5-0-0-0-0-7-7-7-7-4-4-4-4-5-5-5-5----0------0-3-|

Chorus

Outro
F|--------------------------------------------------------------|
C|---------------------------------------3-0--------------------|
G|--5------------------------3h5---5-----------5---3h5---3h5----|
C|0---3-0-5-0-0-6-0-0-5-0-3h5----0---3-0-----0---0-----0-----3~~|

F|-------------------------------------------------------|
C|-------------------------------------------------------|
G|--5------------------------3h5-------5-----------------|
C|0---3-0-5-0-0-6-0-0-5-0-3h5-------0-----3-----0--0--0--|

            
            
Suggest correction
Creating personal tab
Creating personal tab
You can edit any tab online and save it as your Personal.

You can edit, replace or remove any tab part or add personal notes – all changes will be seen only by you.

Personal tabs can be accessed anytime from any device, even offline.
Learn more »
Give kudos to tab author, rate the tab!
1 2 3 4 5
comments
print report bad tab
1 comment total.
0 reply
BassSlapper7 10 Apr 01, 2013 01:31 PM

yo is the verse in slap.

guest
You may want to rate the tab now too:
select rating
Wanna post a correction for this tab? Suggest correction