Oops, an error
Loading. Please wait.

Skin bass

version 3
version 3
2,384 views 1 this week
4 commentsread comments
1 2 3 4 5
x 3
add to favorites
×
Save as Personal and add changes to this tab that will be seen only by you. Learn more ›
×
You can save this tab as Personal to edit and correct it or add notes. All changes will be seen only by you. Learn more »
launch autoscroll
font size
0
reset
guitar tuner
edit
Autoscroll
slow
fast
+/-
esc
set tempo
stop
Author
“Skin” – Breaking Benjamin
Tuned in Drop D
Intro:
G:-------------------------|                      G:----------------|
D:-------------------------| (repeat x3) then...  D:----------------|
A:-4-4--4-4----------------|                      A:-4-4--4-4-------|
D:----------4--2-2--2-2--5-|                      D:----------4--2~-|

Verse:
G:-------------------------            G:-----------------------------|
D:------------------------- (repeat x3)D:-----------------------------|
A:-44-4444-----------------    Then    A:-44-4444---------------------|
D:---------4-22-2222-5-----            D:----------4-2-2-2-2--4-4-4-4-|

Bridge:
G:----------------------------|
D:----------------------------| (repeat x2)
A:-44-----33-----11-----11----|
D:----44-----33-----11-----11-|

Chorus:
G:--------------------|                      G:---------------|
D:------6666-44444444-| (repeat x4) then...  D:-11111111-4444-|
A:-4444---------------|                      A:---------------|
D:--------------------|                      D:---------------|

Fill: (play during solo as well)
G:-------------------------|                       G:----------------|
D:-------------------------| (just once) then...   D:----------------|
A:-4-4--4-4----------------|                       A:-4-4--4-4-------|
D:----------4--2-2--2-2--5-|                       D:----------4--2~-|

Final Chorus:
G:--------------------|                      G:------------|
D:------6666-44444444-| (repeat x8) then...  D:-1~----4~---|
A:-4444---------------|                      A:------------|
D:--------------------|                      D:------------|

            
            
Suggest correction
Creating personal tab
Creating personal tab
You can edit any tab online and save it as your Personal.

You can edit, replace or remove any tab part or add personal notes – all changes will be seen only by you.

Personal tabs can be accessed anytime from any device, even offline.
Learn more »
Give kudos to tab author, rate the tab!
1 2 3 4 5
comments
print report bad tab
4 comments total. Showing first comments.
+1 reply
greenhous3 10 Nov 12, 2007 01:41 PM

good but not in drop D

+1 reply
metal mania 10 Nov 25, 2007 04:15 PM

G:-------------------------| G:----------------|
D:-------------------------| (repeat x4) then...
D:----------------|
A:-4-4--4-4----------------| A:-4-4--4-4-------|
D:----------5--4-4--6-6-6--|
D:----------5--4~-|

this is how i think it is

+1 reply
metal mania 10 Nov 25, 2007 04:16 PM

guest
You may want to rate the tab now too:
select rating
Wanna post a correction for this tab? Suggest correction