Oops, an error
Loading. Please wait.
We have an official Sooner Or Later tab made by UG professional guitarists. Check out the tab »
×

Sooner Or Later bass

version 4
version 4

Whole song

  • This tab is based on the original 5 string bass track that Mark Klepaski plays.
31 views 1 this week
no commentswrite comment
1 2 3 4 5
3 more votes to show rating
add to favorites
×
Save as Personal and add changes to this tab that will be seen only by you. Learn more ›
×
You can save this tab as Personal to edit and correct it or add notes. All changes will be seen only by you. Learn more »
launch autoscroll
font size
0
reset
guitar tuner
backing track
0:00
0:00
edit
Autoscroll
slow
fast
+/-
esc
set tempo
stop
About this tab version
This tab is based on the original 5 string bass track that Mark Klepaski plays. Was this info helpful? Yes No
Title: Sooner or Later
Artist: Breaking Benjamin
Album: We Are Not Alone
Tuning: 5 String Drop G/C (G C G C F)
Tab Author: Pearce Hamblin (The Bass Diaries)

  [Intro]
   1  e  &  a  2  e  &  a  3  e  &  a  4  e  &  a    1  e  &  a  2  e  &  a  3  e  &  a  4  e  &  a
F|-------------------------------------------------|-------------------------------------------------|
C|-------------------------------------------------|-------------------------------------------------|
G|-------------------------------------------------|-------------------------------------------------|
C|-------------------------------------------------|-0--12-10-0--10-0--10-12-0--12-10-0--10-0--10-12-|
G|-------------------------------------------------|-------------------------------------------------|


   1  e  &  a  2  e  &  a  3  e  &  a  4  e  &  a    1  e  &  a  2  e  &  a  3  e  &  a  4  e  &  a
F|-------------------------------------------------|-------------------------------------------------|
C|-------------------------------------------------|-------------------------------------------------|
G|-------------------------------------------------|-------------------------------------------------|
C|-0--12-10-0--10-0--10-12-0--12-10-0--10-0--10-12-|-0--12-10-0--10-0--10-12-0--12-10-0--10-0--10-12-|
G|-------------------------------------------------|-------------------------------------------------|


   1  e  &  a  2  e  &  a  3  e  &  a  4  e  &  a    1  e  &  a  2  e  &  a  3  e  &  a  4  e  &  a
F|-------------------------------------------------|-------------------------------------------------|
C|-------------------------------------------------|-------------------------------------------------|
G|-------------------------------------------------|-------------------------------------------------|
C|-0--12-10-0--10-0--10-12-0--12-10-0--10-0--10-12-|-0--12-10-0--10-0--10-12-0--12-10-0--10-0--10-12-|
G|-------------------------------------------------|-------------------------------------------------|


   1  e  &  a  2  e  &  a  3  e  &  a  4  e  &  a    1  e  &  a  2  e  &  a  3  e  &  a  4  e  &  a
F|-------------------------------------------------|-------------------------------------------------|
C|-------------------------------------------------|-------------------------------------------------|
G|-------------------------------------------------|-------------------------------------------------|
C|-0--12-10-0--10-0--10-12-0--12-10-0--10-0--12\\\\|----------------------------------------3--3--5--|
G|-------------------------------------------------|-5--------------------------3--3-----3-----------|


   1  e  &  a  2  e  &  a  3  e  &  a  4  e  &  a    1  e  &  a  2  e  &  a  3  e  &  a  4  e  &  a
F|-------------------------------------------------|-------------------------------------------------|
C|-------------------------------------------------|-------------------------------------------------|
G|-------------------------------------------------|-------------------------------------------------|
C|----------------------------------------3--3-----|----------------------------------------3--3--5--|
G|-5-----------------------------3-----5-----------|-5-----------------------------3-----5-----------|

                                                    [Verse 1]
   1  e  &  a  2  e  &  a  3  e  &  a  4  e  &  a    1  e  &  a  2  e  &  a  3  e  &  a  4  e  &  a
F|-------------------------------------------------|-------------------------------------------------|
C|-------------------------------------------------|-------------------------------------------------|
G|-------------------------------------------------|-------------------------------------------------|
C|-3--------------------7-----7--7-----------------|-0--------------------------------------3--3--5--|
G|-------------------------------------------------|----------------------------3--3-----3-----------|


   1  e  &  a  2  e  &  a  3  e  &  a  4  e  &  a    1  e  &  a  2  e  &  a  3  e  &  a  4  e  &  a
F|-------------------------------------------------|-------------------------------------------------|
C|-------------------------------------------------|-------------------------------------------------|
G|-------------------------------------------------|-------------------------------------------------|
C|----------------------------------------3--3-----|----------------------------------------3--3--5--|
G|-5-----------------------------3-----5-----------|-5-----------------------------3-----5-----------|


   1  e  &  a  2  e  &  a  3  e  &  a  4  e  &  a    1  e  &  a  2  e  &  a  3  e  &  a  4  e  &  a
F|-------------------------------------------------|-------------------------------------------------|
C|-------------------------------------------------|-------------------------------------------------|
G|-------------------------------------------------|-------------------------------------------------|
C|-3--------------------7-----7--7-----------------|-0--------------------------------------3--3--5--|
G|-------------------------------------------------|-------------------------3-----3-----5-----------|


   1  e  &  a  2  e  &  a  3  e  &  a  4  e  &  a    1  e  &  a  2  e  &  a  3  e  &  a  4  e  &  a
F|-------------------------------------------------|-------------------------------------------------|
C|-------------------------------------------------|-------------------------------------------------|
G|-------------------------------------------------|-------------------------------------------------|
C|----------------------------------------3--3-----|----------------------------------------3--3--5--|
G|-5-----------------------3-----3-----5-----------|-5-----------5-----------------3-----5-----------|

                                                    [Pre-Chorus 1]
   1  e  &  a  2  e  &  a  3  e  &  a  4  e  &  a    1  e  &  a  2  e  &  a  3  e  &  a  4  e  &  a
F|-------------------------------------------------|-------------------------------------------------|
C|-------------------------------------------------|-------------------------------------------------|
G|-------------------------------------------------|-------------------------------------------------|
C|-3--------------------7-----7--7-----------------|-8--------------------8--------8--------7--8--7--|
G|-------------------------------------------------|-------------------------------------------------|


   1  e  &  a  2  e  &  a  3  e  &  a  4  e  &  a    1  e  &  a  2  e  &  a  3  e  &  a  4  e  &  a
F|-------------------------------------------------|-------------------------------------------------|
C|-------------------------------------------3-----|-------------------------------------------------|
G|-5--------------------5--------5-----------------|-3--------------------3--------3-----------------|
C|-------------------------------------------------|-------------------------------------------------|
G|-------------------------------------------------|-------------------------------------------------|

                                                    [Chorus 1]
   1  e  &  a  2  e  &  a  3  e  &  a  4  e  &  a    1  e  &  a  2  e  &  a  3  e  &  a  4  e  &  a
F|-------------------------------------------------|-------------------------------------------------|
C|-3-----------3-----------2-----------------------|-------------------------------------------------|
G|-------------------------------------3-----5-----|-------------------------------------------------|
C|-------------------------------------------------|-3-----3-----3-----3-----3-----3-----3-----------|
G|-------------------------------------------------|-------------------------------------------------|


   1  e  &  a  2  e  &  a  3  e  &  a  4  e  &  a    1  e  &  a  2  e  &  a  3  e  &  a  4  e  &  a
F|-------------------------------------------------|-------------------------------------------------|
C|-------------------------------------------------|-------------------------------------------------|
G|-------------------------------------------------|-5-----5-----5-----5-----5-----5-----5-----------|
C|-5-----5-----5-----5-----5-----5-----5-----------|-------------------------------------------------|
G|-------------------------------------------------|-------------------------------------------------|


   1  e  &  a  2  e  &  a  3  e  &  a  4  e  &  a    1  e  &  a  2  e  &  a  3  e  &  a  4  e  &  a
F|-------------------------------------------------|-------------------------------------------------|
C|-------------------------------------------------|-------------------------------------------------|
G|-------------------------------------7-----7-----|-------------------------------------------------|
C|-5-----5-----5-----5-----8-----8-----------------|-3-----3-----3-----3-----3-----3-----3-----------|
G|-------------------------------------------------|-------------------------------------------------|


   1  e  &  a  2  e  &  a  3  e  &  a  4  e  &  a    1  e  &  a  2  e  &  a  3  e  &  a  4  e  &  a
F|-------------------------------------------------|-------------------------------------------------|
C|-------------------------------------------------|-------------------------------------------------|
G|-------------------------------------------------|-5-----5-----5-----5-----5-----5-----5-----5-----|
C|-8-----8-----8-----8-----8-----8-----8-----8-----|-------------------------------------------------|
G|-------------------------------------------------|-------------------------------------------------|

                                                    [Intro Riff]
   1  e  &  a  2  e  &  a  3  e  &  a  4  e  &  a    1  e  &  a  2  e  &  a  3  e  &  a  4  e  &  a
F|-------------------------------------------------|-------------------------------------------------|
C|-------------------------------------------------|-------------------------------------------------|
G|-------------------------------------7-----7--8--|-------------------------------------------------|
C|-5-----5-----5-----5-----8-----8-----------------|-0--12-10-0--10-0--10-12-0--12-10-0--10-0--10-12-|
G|-------------------------------------------------|-------------------------------------------------|


   1  e  &  a  2  e  &  a  3  e  &  a  4  e  &  a    1  e  &  a  2  e  &  a  3  e  &  a  4  e  &  a
F|-------------------------------------------------|-------------------------------------------------|
C|-------------------------------------------------|-------------------------------------------------|
G|-------------------------------------------8\\\\\|-------------------------------------------------|
C|-0--12-10-0--10-0--10-12-0--12-10-0--10-0--------|----------------------------------------3--3--5--|
G|-------------------------------------------------|-5-----------------------------3-----5-----------|


   1  e  &  a  2  e  &  a  3  e  &  a  4  e  &  a    1  e  &  a  2  e  &  a  3  e  &  a  4  e  &  a
F|-------------------------------------------------|-------------------------------------------------|
C|-------------------------------------------------|-------------------------------------------------|
G|-------------------------------------------------|-------------------------------------------------|
C|----------------------------------------3--3-----|----------------------------------------3--3--5--|
G|-5-----------------------3-----3-----5-----------|-5-----------------------3-----3-----5-----------|

                                                    [Verse 2]
   1  e  &  a  2  e  &  a  3  e  &  a  4  e  &  a    1  e  &  a  2  e  &  a  3  e  &  a  4  e  &  a
F|-------------------------------------------------|-------------------------------------------------|
C|-------------------------------------------------|-------------------------------------------------|
G|-------------------------------------------------|-------------------------------------------------|
C|-3--------------------7-----7--7-----------------|----------------------------------------3--3--5--|
G|-------------------------------------------------|-5-----------------------------3-----5-----------|


   1  e  &  a  2  e  &  a  3  e  &  a  4  e  &  a    1  e  &  a  2  e  &  a  3  e  &  a  4  e  &  a
F|-------------------------------------------------|-------------------------------------------------|
C|-------------------------------------------------|-------------------------------------------------|
G|-------------------------------------------------|-------------------------------------------------|
C|----------------------------------------3--3-----|----------------------------------------3--3--5--|
G|-5-----------------------3-----3-----5-----------|-5-----------------------3-----3-----5-----------|


   1  e  &  a  2  e  &  a  3  e  &  a  4  e  &  a    1  e  &  a  2  e  &  a  3  e  &  a  4  e  &  a
F|-------------------------------------------5-----|-------------------------------------------------|
C|-------------------------------------7-----------|-------------------------------------------------|
G|-------------------------------------------------|-------------------------------------------------|
C|-3--------------------7-----7--7-----------------|----------------------------------------3--3--5--|
G|-------------------------------------------------|-5-----------------------------3-----5-----------|


   1  e  &  a  2  e  &  a  3  e  &  a  4  e  &  a    1  e  &  a  2  e  &  a  3  e  &  a  4  e  &  a
F|-------------------------------------------------|-------------------------------------------------|
C|-------------------------------------------------|-------------------------------------------------|
G|-------------------------------------------------|-------------------------------------------------|
C|----------------------------------------3--3-----|----------------------------------------3--3--5--|
G|-5-----------------------------3-----5-----------|-5--------------------------3--3-----5-----------|

                                                    [Pre-Chorus 2]
   1  e  &  a  2  e  &  a  3  e  &  a  4  e  &  a    1  e  &  a  2  e  &  a  3  e  &  a  4  e  &  a
F|-------------------------------------------------|-------------------------------------------------|
C|-------------------------------------------------|-------------------------------------------------|
G|-------------------------------------------------|-------------------------------------------------|
C|-3--------------------7--7-----7-----------------|-8--------------------8-----8--8--------7--8--7--|
G|----------------------------8--------------------|-------------------------------------------------|


   1  e  &  a  2  e  &  a  3  e  &  a  4  e  &  a    1  e  &  a  2  e  &  a  3  e  &  a  4  e  &  a
F|-------------------------------------------------|-------------------------------------------------|
C|-------------------------------------------------|-------------------------------------------------|
G|-5-----------------------5-----------------------|-3--------------------3--------3-----------3-----|
C|-------------------------------------3-----------|-------------------------------------------------|
G|-------------------------------------------------|-------------------------------------------------|

                                                    [Chorus 2]
   1  e  &  a  2  e  &  a  3  e  &  a  4  e  &  a    1  e  &  a  2  e  &  a  3  e  &  a  4  e  &  a
F|-------------------------------------------------|-------------------------------------------------|
C|-------------------------------------------------|-------------------------------------------------|
G|-8-----------8-----10----7-----------3-----------|-------------------------------------------------|
C|-------------------------------------------------|-3-----3-----3-----3-----3-----3-----3-----3-----|
G|-------------------------------------------------|-------------------------------------------------|


   1  e  &  a  2  e  &  a  3  e  &  a  4  e  &  a    1  e  &  a  2  e  &  a  3  e  &  a  4  e  &  a
F|-------------------------------------------------|-------------------------------------------------|
C|-------------------------------------------------|-------------------------------------------------|
G|-------------------------------------------------|-5-----5-----5-----5-----5-----5-----5-----------|
C|-5-----5-----5-----5-----5-----5-----5-----5-----|-------------------------------------------------|
G|-------------------------------------------------|-------------------------------------------------|


   1  e  &  a  2  e  &  a  3  e  &  a  4  e  &  a    1  e  &  a  2  e  &  a  3  e  &  a  4  e  &  a
F|-------------------------------------------------|-------------------------------------------------|
C|-------------------------------------------------|-------------------------------------------------|
G|-------------------------------------7-----7-----|-------------------------------------------------|
C|-5-----5-----5-----5-----8-----8-----------------|-3-----3-----3-----3-----3-----3-----3-----3-----|
G|-------------------------------------------------|-------------------------------------------------|


   1  e  &  a  2  e  &  a  3  e  &  a  4  e  &  a    1  e  &  a  2  e  &  a  3  e  &  a  4  e  &  a
F|-------------------------------------------------|-------------------------------------------------|
C|-------------------------------------------------|-------------------------------------------------|
G|-------------------------------------------------|-5-----5-----5-----5-----5-----5-----5-----------|
C|-8-----8-----8-----8-----8-----8-----8-----8-----|-------------------------------------------------|
G|-------------------------------------------------|-------------------------------------------------|

                                                    [Bridge]
   1  e  &  a  2  e  &  a  3  e  &  a  4  e  &  a    1  e  &  a  2  e  &  a  3  e  &  a  4  e  &  a
F|-------------------------------------------------|-------------------------------------------------|
C|-------------------------------------------------|-------------------------------------------------|
G|-------------------------------------7-----7--8--|-------------------------------------------------|
C|-5-----5-----5-----5-----8-----8-----------------|-10-12----12----0--10-12----12----0--10-12-------|
G|-------------------------------------------------|-------------------------------------------------|


   1  e  &  a  2  e  &  a  3  e  &  a  4  e  &  a    1  e  &  a  2  e  &  a  3  e  &  a  4  e  &  a
F|-------------------------------------------------|-------------------------------------------------|
C|-------------------------------------------------|-------------------------------------------------|
G|-------------------------------------------------|-------------------------------------------------|
C|-10-12----12----0--10-12----12----0--8-----8-----|-10-12----12----0--10-12----12----0--10-12-------|
G|-------------------------------------------------|-------------------------------------------------|


   1  e  &  a  2  e  &  a  3  e  &  a  4  e  &  a    1  e  &  a  2  e  &  a  3  e  &  a  4  e  &  a
F|-------------------------------------------------|-------------------------------------------------|
C|-------------------------------------------------|-------------------------------------------------|
G|-------------------------------------------------|-------------------------------------------------|
C|-10-12----12----0--10-12----12----0--8-----8-----|-10-12----12----0--10-12----12----0--10-12-------|
G|-------------------------------------------------|-------------------------------------------------|


   1  e  &  a  2  e  &  a  3  e  &  a  4  e  &  a    1  e  &  a  2  e  &  a  3  e  &  a  4  e  &  a
F|-------------------------------------------------|-------------------------------------------------|
C|-------------------------------------------------|-------------------------------------------------|
G|-------------------------------------------------|-------------------------------------------------|
C|-10-12----12----0--10-12----12----0--8-----8-----|-10-12----12----0--10-12----12----0--10-12----12-|
G|-------------------------------------------------|-------------------------------------------------|

                                                    [Chorus 3]
   1  e  &  a  2  e  &  a  3  e  &  a  4  e  &  a    1  e  &  a  2  e  &  a  3  e  &  a  4  e  &  a
F|-------------------------------------------------|-------------------------------------------------|
C|-------------------------------------------------|-------------------------------------------------|
G|-7--8--8--8--8--10-10-10-10-12-12-12-12-13-13-15-|-------------------------------------------------|
C|-------------------------------------------------|-------------------------------------------------|
G|-------------------------------------------------|-------------------------------------------------|


   1  e  &  a  2  e  &  a  3  e  &  a  4  e  &  a    1  e  &  a  2  e  &  a  3  e  &  a  4  e  &  a
F|-------------------------------------------------|-------------------------------------------------|
C|-------------------------------------------------|-------------------------------------------------|
G|-------------------------------------------------|-------------------------------------------------|
C|-------------------------------------------------|-------------------------------------------------|
G|-------------------------------------------------|-------------------------------------------------|


   1  e  &  a  2  e  &  a  3  e  &  a  4  e  &  a    1  e  &  a  2  e  &  a  3  e  &  a  4  e  &  a
F|-------------------------------------------------|-------------------------------------------------|
C|-------------------------------------------------|-------------------------------------------------|
G|-------------------------------------7-----------|-------------------------------------------------|
C|-5-----5-----------------8-----------------------|-3-----3-----3-----3-----3-----3-----3-----3-----|
G|-------------------------------------------------|-------------------------------------------------|


   1  e  &  a  2  e  &  a  3  e  &  a  4  e  &  a    1  e  &  a  2  e  &  a  3  e  &  a  4  e  &  a
F|-------------------------------------------------|-------------------------------------------------|
C|-------------------------------------------------|-------------------------------------------------|
G|-------------------------------------------------|-5-----5-----5-----5-----5-----5-----5-----------|
C|-5-----5-----5-----5-----5-----5-----5-----------|-------------------------------------------------|
G|-------------------------------------------------|-------------------------------------------------|

                                                    [Outro]
   1  e  &  a  2  e  &  a  3  e  &  a  4  e  &  a    1  e  &  a  2  e  &  a  3  e  &  a  4  e  &  a
F|-------------------------------------------------|-------------------------------------------------|
C|-------------------------------------------------|-------------------------------------------------|
G|-------------------------------------7-----7-----|-------------------------------------------------|
C|-5-----5-----5-----5-----8-----8-----------------|-8-----8-----8-----8-----8-----8-----8-----8-----|
G|-------------------------------------------------|-------------------------------------------------|


   1  e  &  a  2  e  &  a  3  e  &  a  4  e  &  a    1  e  &  a  2  e  &  a  3  e  &  a  4  e  &  a
F|-------------------------------------------------|-------------------------------------------------|
C|-------------------------------------------------|-------------------------------------------------|
G|-8-----8-----8-----8-----8-----8-----8-----8-----|-------------------------------------------------|
C|-------------------------------------------------|-5-----5-----5-----5-----5-----5-----5-----5-----|
G|-------------------------------------------------|-------------------------------------------------|


   1  e  &  a  2  e  &  a  3  e  &  a  4  e  &  a    1  e  &  a  2  e  &  a  3  e  &  a  4  e  &  a
F|-------------------------------------------------|-------------------------------------------------|
C|-------------------------------------------------|-------------------------------------------------|
G|-8-----8-----8-----8-----------------7-----7-----|-------------------------------------------------|
C|-------------------------10----10----------------|-8-----8-----8-----8-----8-----8-----8-----8-----|
G|-------------------------------------------------|-------------------------------------------------|


   1  e  &  a  2  e  &  a  3  e  &  a  4  e  &  a    1  e  &  a  2  e  &  a  3  e  &  a  4  e  &  a
F|-------------------------------------------------|-------------------------------------------------|
C|-------------------------------------------------|-------------------------------------------------|
G|-8-----8-----8-----8-----8-----8-----8-----8-----|-------------------------------------------------|
C|-------------------------------------------------|-5-----5-----5-----5-----5-----5-----5-----5-----|
G|-------------------------------------------------|-------------------------------------------------|


   1  e  &  a  2  e  &  a  3  e  &  a  4  e  &  a    1  e  &  a  2  e  &  a  3  e  &  a  4  e  &  a
F|-------------------------------------------------|-------------------------------------------------|
C|-------------------------------------------------|-------------------------------------------------|
G|-8-----8-----8-----------------------------------|-------------------------------------------------|
C|-------------------------7-----------7-----------|-8-----------------------------------------------|
G|-------------------------------------------------|-------------------------------------------------|


***********************************
| \   Slide down
***********************************

            
            
Suggest correction
Creating personal tab
Creating personal tab
You can edit any tab online and save it as your Personal.

You can edit, replace or remove any tab part or add personal notes – all changes will be seen only by you.

Personal tabs can be accessed anytime from any device, even offline.
Learn more »
Give kudos to tab author, rate the tab!
1 2 3 4 5
comments
print report bad tab
guest
You may want to rate the tab now too:
select rating
Wanna post a correction for this tab? Suggest correction