Oops, an error
Loading. Please wait.

Until The End bass

version 1
version 1

Whole song

Interactive

6,200 views 1 this week
1 commentread comment
1 2 3 4 5
2 more votes to show rating
add to favorites
×
Save as Personal and add changes to this tab that will be seen only by you. Learn more ›
×
You can save this tab as Personal to edit and correct it or add notes. All changes will be seen only by you. Learn more »
launch autoscroll
font size
0
reset
guitar tuner
backing track
0:00
0:00
edit
Autoscroll
slow
fast
+/-
esc
set tempo
stop
Author
“Until The End”- Breaking Benjamin

*verse, chorus and after chorus tabbed by UB The Band*

Tuning A#, F, A#, D#
Intro
|--------------------------------------------------------------------|
|--------------------------------------------------------------------|
|--------------------------------------------------------------------|
|-0---00---0—-2000---0---00--0----001--------------------------------|

|--------------------------------------------------------------------|
|--------------------------------------------------------------------|
|--------------------------------------------------------------------|
|-0-0----1-0-0---3p2-0-0-1---3p2p0h3p2p0-----------------------------|

|--------------------------------------------------------------------|
|--------------------------------------------------------------------|
|----------------------3h555—3h666-----------------------------------|
|-0-0---1-0-0---1-0-0------------------------------------------------|

|--------------------------------------------------------------------|
|--------------------------------------------------------------------|
|--------------------------------------------------------------------|
|-0-0----1-0-0---3p2-0-0-1---3p2p0h3p2p0-----------------------------|

|-------------------------------------------------------------|
|----------------------------0h2h3----------------------------|
|-------------------------------------------------------------|
|-0-0---1-0-0---1-0-0--1-0-0-------0--------------------------|

Verse 00:29
|--------------------------------------------------------|
|--------------------------------------------------------|
|--------0-----1----3--1-------------0-----1----3--1-----|
|-------------------------0---------------------------0--|

Verse Continued
|----------------------------------------------------------|
|----------------------------------------------------------|
|--------0-----1----3--1-------------0-----1-------33--11--|
|-------------------------0--------------------------------|

Chorus 
|--------------------------------------------------|
|--------------------3-----------------------------|
|------------3----5----5--5----0--1---1--3----1----|
|--3----3-3----------------------------------------|x2

After Chorus 
|--------------------------------------------------------------------|
|-----------------------------------------------------------0h2h3----|
|--------------------------------------------------------------------|
|--0-0--0--0-0-320-0-0--0--320320-0-0--0--0-0--0--0-0--0-0--------0--|

Intro
Verse
Chorus

Bridge x2
|--------------------------------------------------------------------|
|--------------------------------------------------------------------|
|--------------------------------------------------------------------|
|--0-0--8—--6h7p6-4---3h5p3-1---0-0--8—6h7p6-4-3-1-------------------|
Solo x2
|--------------------------------------------------------------------|
|--------------------------------------------------------------------|
|-2-2-2-2-2-2-5-4---2-2-2-2-2-2-4-5--2-2-2-2-2-2-5-4--2-2-2-5-2-2-2-4|
|--------------------------------------------------------------------|

Chorus until the end

            
            
Suggest correction
Creating personal tab
Creating personal tab
You can edit any tab online and save it as your Personal.

You can edit, replace or remove any tab part or add personal notes – all changes will be seen only by you.

Personal tabs can be accessed anytime from any device, even offline.
Learn more »
Give kudos to tab author, rate the tab!
1 2 3 4 5
comments
print report bad tab
1 comment total.
0 reply
Bass Pants 1,920 May 30, 2007 04:45 PM

Put the Verse on the lowest string, sorry about that

guest
You may want to rate the tab now too:
select rating
Wanna post a correction for this tab? Suggest correction