Oops, an error
Loading. Please wait.

Water tab

version 3
version 3

Whole song

Interactive

2,278 views 1 this week
no commentswrite comment
1 2 3 4 5
2 more votes to show rating
add to favorites
×
Save as Personal and add changes to this tab that will be seen only by you. Learn more ›
×
You can save this tab as Personal to edit and correct it or add notes. All changes will be seen only by you. Learn more »
launch autoscroll
font size
0
reset
how to read this tab
guitar tuner
edit
Autoscroll
slow
fast
+/-
esc
set tempo
stop
-------------------------------------------------------------------------------
                             Water - Breaking Benjamin
-------------------------------------------------------------------------------
Tabbed by: metalmonkey147
Email: 

Tuning: Drop C

|---------------------------------------------------------------------------|
|---------------------------------------------------------------------------|
|--------------------------------4--------------------------------4---------|
|---2-1--1--1---2-1--1--1---2-1--4---2-1--1--1---2-1--1--1---2-1--4---------|
|---2-1--1--1---2-1--1--1---2-1--2---2-1--1--1---2-1--1--1---2-1--2---------|
|---2-1--1--1---2-1--1--1---2-1------2-1--1--1---2-1--1--1---2-1------------|
                                                                  (hold)
|---------------------------------------------------------------------------|
|---------------------------------------------------------------------------|
|-(4)----------------------------4------------------------8--7--6-----------|
|-(4)-1--1--1---2-1--1--1---2-1--4---2-1--1--1---2-1--1---8--7--6-----------|
|-(2)-1--1--1---2-1--1--1---2-1--2---2-1--1--1---2-1--1---6--5--4-----------|
|-----1--1--1---2-1--1--1---2-1------2-1--1--1---2-1--1---------------------|

|---------------------------------------------------------------------------|
|---------------------------------------------------------------------------|
|--------------------------------4--------------------------------4---------|
|---2-1--1--1---2-1--1--1---2-1--4---2-1--1--1---2-1--1--1---2-1--4---------|
|---2-1--1--1---2-1--1--1---2-1--2---2-1--1--1---2-1--1--1---2-1--2---------|
|---2-1--1--1---2-1--1--1---2-1------2-1--1--1---2-1--1--1---2-1------------|
                                                                  (hold)
|---------------------------------------------------------------------------|
|---------------------------------------------------------------4-----------|
|-(4)----------------------------4------------------------------------------|
|-(4)-1--1--1---2-1--1--1---2-1--4---2-1--1--1---2-1--1---------------------|
|-(2)-1--1--1---2-1--1--1---2-1--2---2-1--1--1---2-1--1---------------------|
|-----1--1--1---2-1--1--1---2-1------2-1--1--1---2-1--1---1-1---------------|
                                                                *
|---------------------------------------------------------------------------|
|--------------------------------4--------------------------------4---------|
|--------------------------------4--------------------------------4---------|
|---------------------------------------------------------------------------|
|---2-1--1--1---2-1--1--1---2-1------2-1--1--1---2-1--1--1---2-1------------|
|---2-1--1--1---2-1--1--1---2-1------2-1--1--1---2-1--1--1---2-1------------|
    . .  .  .   . .  .  .   . .      . .  .  .   . .  .  .   . .
|---------------------------------------------------------------------------|
|--------------------------------4------------------------------------------|
|--------------------------------4--------------------------------4---------|
|-----------------------------------------------------1--1---2-1--4---------|
|---2-1--1--1---2-1--1--1---2-1------2-1--1--1---2-1--1--1---2-1--2---------|
|---2-1--1--1---2-1--1--1---2-1------2-1--1--1---2-1--1--1---2-1------------|
    . .  .  .   . .  .  .   . .      . .  .  .   . .
|---------------------------------------------------------------------------|
|---------------------------------------------------------------------------|
|--------------------------------4--------------------------------4---------|
|---2-1--1--1---2-1--1--1---2-1--4---2-1--1--1---2-1--1--1---2-1--4---------|
|---2-1--1--1---2-1--1--1---2-1--2---2-1--1--1---2-1--1--1---2-1--2---------|
|---2-1--1--1---2-1--1--1---2-1------2-1--1--1---2-1--1--1---2-1------------|

|---------------------------------------------------------------------------|
|-------------------------------------------------------4-------------------|
|--------------------------------4------------------------4p3---------------|
|---2-1--1--1---2-1--1--1---2-1--4---2-1--1--1---2-1-1---------2-1-1-1------|
|---2-1--1--1---2-1--1--1---2-1--2---2-1--1--1---2-1-1---------2-1-1-1------|
|---2-1--1--1---2-1--1--1---2-1------2-1--1--1---2-1-1---------2-1-1-1------|
                                                        * *
|---------------------------------------------------------------------------|
|---------------------------------------------------------------------------|
|---------------------------------------------------------------------------|
|---6--6--6--6--6--6--6--6--7--7--7--7--2--2--7--7--------------------------|
|---6--6--6--6--6--6--6--6--7--7--7--7--2--2--7--7--------------------------|
|---6--6--6--6--6--6--6--6--7--7--7--7--2--2--7--7--------------------------|

|---------------------------------------------------------------------------|
|-------------------------------------------------------4-------------------|
|--------------------------------4------------------------4p3---------------|
|---2-1--1--1---2-1--1--1---2-1--4---2-1--1--1---2-1-1---------2-1-1-1------|
|---2-1--1--1---2-1--1--1---2-1--2---2-1--1--1---2-1-1---------2-1-1-1------|
|---2-1--1--1---2-1--1--1---2-1------2-1--1--1---2-1-1---------2-1-1-1------|
                                                        * *
|---------------------------------------------------------------------------|
|---------------------------------------------------------------------------|
|---------------------------------------------------------------------------|
|---6--6--6--6--6--6--6--6--7--7--7--7--2--2--7--7--------------------------|
|---6--6--6--6--6--6--6--6--7--7--7--7--2--2--7--7--------------------------|
|---6--6--6--6--6--6--6--6--7--7--7--7--2--2--7--7--------------------------|

|---------------------------------------------------------------------------|
|---------------------------------------------------------------------------|
|---4--4--4--4--6--6--6--6--------------------------------------------------|
|---4--4--4--4--6--6--6--6--1--1--1--1--2--2--4--4--------------------------|
|---2--2--2--2--4--4--4--4--1--1--1--1--2--2--4--4--------------------------|
|---------------------------1--1--1--1--2--2--4--4--------------------------|

|---------------------------------------------------------------------------|
|---------------------------------------------------------------------------|
|---4--4--4--4--6--6--6--6--------------------------------------------------|
|---4--4--4--4--6--6--6--6--1--1--1--1--2-1---2-1---------------------------|
|---2--2--2--2--4--4--4--4--1--1--1--1--2-1---2-1---------------------------|
|---------------------------1--1--1--1--2-1---2-1---------------------------|
                                        .     .
|---------------------------------------------------------------------------|
|---------------------------------------------------------------------------|
|---4--4--4--4--6--6--6--6--------------------------------------------------|
|---4--4--4--4--6--6--6--6--1--1--1--1--2--2--4--4--------------------------|
|---2--2--2--2--4--4--4--4--1--1--1--1--2--2--4--4--------------------------|
|---------------------------1--1--1--1--2--2--4--4--------------------------|

|---------------------------------------------------------------------------|
|---------------------------------------------------------------------------|
|---4--4--------6--6--------8--8--8--8--------------------------------------|
|---4--4--XXXX--6--6--XXXX--8--8--8--8--7--7--7--7--------------------------|
|---2--2--XXXX--4--4--XXXX--6--6--6--6--7--7--7--7--------------------------|
|---------XXXX--------XXXX--------------7--7--7--7--------------------------|

|---------------------------------------------------------------------------|
|---------------------------------------------------------------------------|
|--------------------------------4--------------------------------4---------|
|---2-1--1--1---2-1--1--1---2-1--4---2-1--1--1---2-1--1--1---2-1--4---------|
|---2-1--1--1---2-1--1--1---2-1--2---2-1--1--1---2-1--1--1---2-1--2---------|
|---2-1--1--1---2-1--1--1---2-1------2-1--1--1---2-1--1--1---2-1------------|
                                                                  (hold)
|---------------------------------------------------------------------------|
|---------------------------------------------------------------4-----------|
|-(4)----------------------------4------------------------------------------|
|-(4)-1--1--1---2-1--1--1---2-1--4---2-1--1--1---2-1--1---------------------|
|-(2)-1--1--1---2-1--1--1---2-1--2---2-1--1--1---2-1--1---------------------|
|-----1--1--1---2-1--1--1---2-1------2-1--1--1---2-1--1---1-1---------------|
                                                                *
|---------------------------------------------------------------------------|
|--------------------------------4--------------------------------4---------|
|--------------------------------4--------------------------------4---------|
|---------------------------------------------------------------------------|
|---2-1--1--1---2-1--1--1---2-1------2-1--1--1---2-1--1--1---2-1------------|
|---2-1--1--1---2-1--1--1---2-1------2-1--1--1---2-1--1--1---2-1------------|
    . .  .  .   . .  .  .   . .      . .  .  .   . .  .  .   . .
|---------------------------------------------------------------------------|
|--------------------------------4------------------------------------------|
|--------------------------------4--------------------------------4---------|
|-----------------------------------------------------1--1---2-1--4---------|
|---2-1--1--1---2-1--1--1---2-1------2-1--1--1---2-1--1--1---2-1--2---------|
|---2-1--1--1---2-1--1--1---2-1------2-1--1--1---2-1--1--1---2-1------------|
    . .  .  .   . .  .  .   . .      . .  .  .   . .
|---------------------------------------------------------------------------|
|---------------------------------------------------------------------------|
|--------------------------------4--------------------------------4---------|
|---2-1--1--1---2-1--1--1---2-1--4---2-1--1--1---2-1--1--1---2-1--4---------|
|---2-1--1--1---2-1--1--1---2-1--2---2-1--1--1---2-1--1--1---2-1--2---------|
|---2-1--1--1---2-1--1--1---2-1------2-1--1--1---2-1--1--1---2-1------------|

|---------------------------------------------------------------------------|
|-------------------------------------------------------4-------------------|
|--------------------------------4------------------------4p3---------------|
|---2-1--1--1---2-1--1--1---2-1--4---2-1--1--1---2-1-1---------2-1-1-1------|
|---2-1--1--1---2-1--1--1---2-1--2---2-1--1--1---2-1-1---------2-1-1-1------|
|---2-1--1--1---2-1--1--1---2-1------2-1--1--1---2-1-1---------2-1-1-1------|
                                                        * *
|---------------------------------------------------------------------------|
|---------------------------------------------------------------------------|
|---------------------------------------------------------------------------|
|---6--6--6--6--6--6--6--6--7--7--7--7--2--2--7--7--------------------------|
|---6--6--6--6--6--6--6--6--7--7--7--7--2--2--7--7--------------------------|
|---6--6--6--6--6--6--6--6--7--7--7--7--2--2--7--7--------------------------|

|---------------------------------------------------------------------------|
|-------------------------------------------------------4-------------------|
|--------------------------------4------------------------4p3---------------|
|---2-1--1--1---2-1--1--1---2-1--4---2-1--1--1---2-1-1---------2-1-1-1------|
|---2-1--1--1---2-1--1--1---2-1--2---2-1--1--1---2-1-1---------2-1-1-1------|
|---2-1--1--1---2-1--1--1---2-1------2-1--1--1---2-1-1---------2-1-1-1------|
                                                        * *
|---------------------------------------------------------------------------|
|---------------------------------------------------------------------------|
|---------------------------------------------------------------------------|
|---6--6--6--6--6--6--6--6--7--7--7--7--2--2--7--7--------------------------|
|---6--6--6--6--6--6--6--6--7--7--7--7--2--2--7--7--------------------------|
|---6--6--6--6--6--6--6--6--7--7--7--7--2--2--7--7--------------------------|

|---------------------------------------------------------------------------|
|---------------------------------------------------------------------------|
|---4--4--4--4--6--6--6--6--------------------------------------------------|
|---4--4--4--4--6--6--6--6--1--1--1--1--2--2--4--4--------------------------|
|---2--2--2--2--4--4--4--4--1--1--1--1--2--2--4--4--------------------------|
|---------------------------1--1--1--1--2--2--4--4--------------------------|

|---------------------------------------------------------------------------|
|---------------------------------------------------------------------------|
|---4--4--4--4--6--6--6--6--------------------------------------------------|
|---4--4--4--4--6--6--6--6--1--1--1--1--2-1---2-1---------------------------|
|---2--2--2--2--4--4--4--4--1--1--1--1--2-1---2-1---------------------------|
|---------------------------1--1--1--1--2-1---2-1---------------------------|
                                        .     .
|---------------------------------------------------------------------------|
|---------------------------------------------------------------------------|
|---4--4--4--4--6--6--6--6--------------------------------------------------|
|---4--4--4--4--6--6--6--6--1--1--1--1--2--2--4--4--------------------------|
|---2--2--2--2--4--4--4--4--1--1--1--1--2--2--4--4--------------------------|
|---------------------------1--1--1--1--2--2--4--4--------------------------|

|---------------------------------------------------------------------------|
|---------------------------------------------------------------------------|
|---4--4--------6--6--------8--8--8--8--------------------------------------|
|---4--4--XXXX--6--6--XXXX--8--8--8--8--7--7--7--7--------------------------|
|---2--2--XXXX--4--4--XXXX--6--6--6--6--7--7--7--7--------------------------|
|---------XXXX--------XXXX--------------7--7--7--7--------------------------|

|---------------------------------------------------------------------------|
|---------------------------------------------------------------------------|
|--------------------------------4--------------------------------4---------|
|---2-1--1--1---2-1--1--1---2-1--4---2-1--1--1---2-1--1--1---2-1--4---------|
|---2-1--1--1---2-1--1--1---2-1--2---2-1--1--1---2-1--1--1---2-1--2---------|
|---2-1--1--1---2-1--1--1---2-1------2-1--1--1---2-1--1--1---2-1------------|
                                                                  (hold)
|---------------------------------------------------------------------------|
|---------------------------------------------------------------------------|
|-(4)----------------------------4--------------------------------4---------|
|-(4)-1--1--1---2-1--1--1---2-1--4---2-1--1--1---2-1--1--1---2-1--4---------|
|-(2)-1--1--1---2-1--1--1---2-1--2---2-1--1--1---2-1--1--1---2-1--2---------|
|-----1--1--1---2-1--1--1---2-1------2-1--1--1---2-1--1--1---2-1------------|

|---------------------------------------------------------------------------|
|---------------------------------------------------------------------------|
|---------------------------------------------------------------------------|
|---------------------------------------------------------------------------|
|------------6--5--4--------------------------------------------------------|
|---------------------7--6--4--1--------------------------------------------|
             .  .  .  .  .  .  .
|---------------------------------------------------------------------------|
|---------------------------------------------------------------------------|
|---------------------------------------------------------------------------|
|---------------------------------------------------------------------------|
|------------6--5--4----------------6--5--4---------------------------------|
|---------------------7--6--4--1-------------7--6--4--1---------------------|

|---------------------------------------------------------------------------|
|---------------------------------------------------------------------------|
|---------------------------------------------------------------------------|
|---------------------------------------------------------------------------|
|------------6--5--4----------------6--5--4---------------------------------|
|---------------------7--6--4--1-------------7--6--4--1---------------------|

|---------------------------------------------------------------------------|
|---------------------------------------------------------------------------|
|------------8--7--6----------------8--7--6---------------------------------|
|---------------------8--7-------------------8--7---------------------------|
|---------------------------9--6-------------------9--6---------------------|
|---------------------------------------------------------------------------|

|---------------------------------------------------------------------------|
|---------------------------------------------------------------------------|
|------------8--7--6----------------8--7--6---------------------------------|
|---------------------8--7-------------------8--7---------------------------|
|---------------------------9--6-------------------9--X-X-------------------|
|---------------------------------------------------------------------------|

|---------------------------------------------------------------------------|
|---------------------------------------------------------------------------|
|---4--4--4--4--6--6--6--6--------------------------------------------------|
|---4--4--4--4--6--6--6--6--1--1--1--1--2--2--4--4--------------------------|
|---2--2--2--2--4--4--4--4--1--1--1--1--2--2--4--4--------------------------|
|---------------------------1--1--1--1--2--2--4--4--------------------------|

|---------------------------------------------------------------------------|
|---------------------------------------------------------------------------|
|---4--4--4--4--6--6--6--6--------------------------------------------------|
|---4--4--4--4--6--6--6--6--1--1---------2-1---2-4--------------------------|
|---2--2--2--2--4--4--4--4--1--1---------2-1---2-4--------------------------|
|---------------------------1--1---------2-1---2-4--------------------------|
                                 (pause) .     .
|---------------------------------------------------------------------------|
|---------------------------------------------------------------------------|
|---4--4--4--4--6--6--6--6--------------------------------------------------|
|---4--4--4--4--6--6--6--6--1--1--1--1--2--2--4--4--------------------------|
|---2--2--2--2--4--4--4--4--1--1--1--1--2--2--4--4--------------------------|
|---------------------------1--1--1--1--2--2--4--4--------------------------|

|---------------------------------------------------------------------------|
|---------------------------------------------------------------------------|
|---4--4--------6--6--------8--8--8--8--------------------------------------|
|---4--4--XXXX--6--6--XXXX--8--8--8--8--7--7--7--7--------------------------|
|---2--2--XXXX--4--4--XXXX--6--6--6--6--7--7--7--7--------------------------|
|---------XXXX--------XXXX--------------7--7--7--7--------------------------|

|---------------------------------------------------------------------------|
|---------------------------------------------------------------------------|
|---4--4--4--4--6--6--6--6--------------------------------------------------|
|---4--4--4--4--6--6--6--6--1--1--1--1--2--2--4--4--------------------------|
|---2--2--2--2--4--4--4--4--1--1--1--1--2--2--4--4--------------------------|
|---------------------------1--1--1--1--2--2--4--4--------------------------|

|---------------------------------------------------------------------------|
|---------------------------------------------------------------------------|
|---4--4--------6--6--------8--8--8--8--------------------------------------|
|---4--4--XXXX--6--6--XXXX--8--8--8--8--7--7--7--7--7--7--7--7--------------|
|---2--2--XXXX--4--4--XXXX--6--6--6--6--7--7--7--7--7--7--7--7--------------|
|---------XXXX--------XXXX--------------7--7--7--7--7--7--7--7--------------|

|---------------------------------------------------------------------------|
|---------------------------------------------------------------------------|
|---------------------------------------------------------------------------|
|---7--7--7--7--7--7--7--7---1----------------------------------------------|
|---7--7--7--7--7--7--7--7---1----------------------------------------------|
|---7--7--7--7--7--7--7--7---1----------------------------------------------|
                             . (let ring)


************************************

| .   palm mute
| /   slide up
| \   slide down
| h   hammer-on
| p   pull-off
| ~   vibrato
| *   harmonic
| x   Mute note
| b   Bend
| pb  Pre-bend
| br  Bend release
| pbr Pre-bend release
| brb Bend release bend

************************************

            
            
Suggest correction
Creating personal tab
Creating personal tab
You can edit any tab online and save it as your Personal.

You can edit, replace or remove any tab part or add personal notes – all changes will be seen only by you.

Personal tabs can be accessed anytime from any device, even offline.
Learn more »
Give kudos to tab author, rate the tab!
1 2 3 4 5
comments
print report bad tab
guest
You may want to rate the tab now too:
select rating
Wanna post a correction for this tab? Suggest correction