Oops, an error
Loading. Please wait.

What Lies Beneath tab

version 1
version 1

Whole song

Interactive

59,895 views 54 this week
9 commentsread comments
1 2 3 4 5
x 19
add to favorites
×
Save as Personal and add changes to this tab that will be seen only by you. Learn more ›
×
You can save this tab as Personal to edit and correct it or add notes. All changes will be seen only by you. Learn more »
launch autoscroll
font size
0
reset
how to read this tab
guitar tuner
edit
Autoscroll
slow
fast
+/-
esc
set tempo
stop
Breaking Benjamin
What Lies Beneath
Tabbed by U B the band
Tuning Db Ab Db Gb Bb Eb

Legend
/-slide up

Intro: Guitar 1 (Clean)
Eb|-------------------------------------------------------------------|
Bb|-------------------------------------------------------------------|
Gb|--------------------------0--------------0--------------0----------|
Db|--------4------------7------4---------4-------------4-----4-0------|
Ab|-----2-------------5---------------3------------------5------------|
Db|--2--------------5------5-------------------------0----------------|

Verse 1: Guitar 1 (Clean) PLAY 3 TIMES
Eb|-------------------------------------------------------------------|
Bb|-------------------------------------------------------------------|
Gb|--------------------------------------0----------------0-----------|
Db|--------4--------------7----------4-----4-0---------4--------------|
Ab|-----2--------------5---------------5------------3-----------------|
Db|--2--------------5--------------0----------------------------------|

Verse 1: Guitar 1 (Clean) PLAY 3 TIMES
Eb|-------------------------------------------------------------------|
Bb|-------------------------------------------------------------------|
Gb|--------------------------------------0--------------0-----0-------|
Db|--------4--------------7----------4-----4-0--------4-----4---------|
Ab|-----2--------------5---------------5------------3-----3-----------|
Db|--2--------------5--------------0----------------------------------|

Chorus: Guitar 1 (Distorted)
Eb|-------------------------------------------------------------------|
Bb|-------------------------------------------------------------------|
Gb|-------------------------------------------------------4--4--4-----|
Db|--5-5--5-5--5-5--5-5--5-5--5-5--0-0--0-0--0-0--0-0--0--4--4--4-----|
Ab|--5-5--5-5--5-5--5-5--5-5--5-5--0-0--0-0--0-0--0-0--0--2--2--2-----|
Db|--5-5--5-5--5-5--5-5--5-5--5-5--0-0--0-0--0-0--0-0--0--------------|
                                                                      |
Chorus: Guitar 2 (Low Distortion)                                     |
Eb|-------------------------------------------------------------------|
Bb|---------10--10---------10--10---------10--10----------------------|
Gb|----12-----12------12-----12------12-----12------12-----11---------|
Db|--12--12---------12--12---------12--12---------12--12----x---------|
Ab|---------------------------------------------------------9---------|
Db|-------------------------------------------------------------------|

Chorus: Guitar 1 (Distorted)
Eb|-------------------------------------------------------------------|
Bb|-------------------------------------------------------------------|
Gb|----------------------------------5-5--5-5--5-5--5-5--5------------|
Db|--2-2--2-2--2-2--0-0--0--2--2--2--5-5--5-5--5-5--5-5--5--0--0--0---|
Ab|--2-2--2-2--2-2--0-0--0--2--2--2--3-3--3-3--3-3--3-3--3--0--0--0---|
Db|--2-2--2-2--2-2--0-0--0--2--2--2-------------------------0--0--0---|
                                                                      |
Chorus: Guitar 2 (Low Distortion)                                     |
Eb|-------------------------------------------------------------------|
Bb|-------------------------------------------------------------------|
Gb|----11---12-11-9----11---12-11-9----11---12-11-9----11---11-12-9---|
Db|--12--12----------12--12----------12--12----------12--12-----------|
Ab|-------------------------------------------------------------------|
Db|-------------------------------------------------------------------|

Chorus: Guitar 1 (Distorted)
Eb|-------------------------------------------------------------------|
Bb|-------------------------------------------------------------------|
Gb|-------------------------------------------------------4--4--4-----|
Db|--5-5--5-5--5-5--5-5--5-5--5-5--0-0--0-0--0-0--0-0--0--4--4--4-----|
Ab|--5-5--5-5--5-5--5-5--5-5--5-5--0-0--0-0--0-0--0-0--0--2--2--2-----|
Db|--5-5--5-5--5-5--5-5--5-5--5-5--0-0--0-0--0-0--0-0--0--------------|
                                                                      |
Chorus: Guitar 2 (Low Distortion)                                     |
Eb|-------------------------------------------------------------------|
Bb|---------10--10---------10--10----------10--10---------------------|
Gb|----12-----12------12-----12-------12-----12------12-----11--------|
Db|--12--12---------12--12----------12--12---------12--12----x--------|
Ab|----------------------------------------------------------9--------|
Db|-------------------------------------------------------------------|

Chorus: Guitar 1 (Distorted)
Eb|-------------------------------------------------------------------|
Bb|-------------------------------------------------------------------|
Gb|----------------------------------5-5--5-5--5-5--5-5--5--4--4--4---|
Db|--2-2--2-2--2-2--0-0--0--2--2--2--5-5--5-5--5-5--5-5--5--4--4--4---|
Ab|--2-2--2-2--2-2--0-0--0--2--2--2--3-3--3-3--3-3--3-3--3--2--2--2---|
Db|--2-2--2-2--2-2--0-0--0--2--2--2-----------------------------------|
                                                                      |
Chorus: Guitar 2 (Low Distortion)                                     |
Eb|-------------------------------------------------------------------|
Bb|-------------------------------------------------------------------|
Gb|----11---12-11-9----11---12-11-9----11---12-11-9----11---11-12-9---|
Db|--12--12----------12--12----------12--12----------12--12-----------|
Ab|-------------------------------------------------------------------|
Db|-------------------------------------------------------------------|

Post Chorus: Guitar 1 (Distorted)
Eb|-------------------------------------------------------------------|
Bb|-------------------------------------------------------------------|
Gb|------------------4--4---4--4--4--5--5---5--5--5-----------4--4--4-|
Db|--2--2---2--2--2--4--4---4--4--4--5--5---5--5--5--5--5--5--4--4--4-|
Ab|--2--2---2--2--2--2--2---2--2--2--3--3---3--3--3--5--5--5--2--2--2-|
Db|--2--2---2--2--2----------------------------------5--5--5----------|
                                                                      |
Post Chorus: Guitar 2 (Distorted)                                     |
Eb|-------------------------------------------------------------------|
Bb|--5---------------7--------------/13-----------------------10------|
Gb|--------------------------------------------------------12----11-12|
Db|-------------------------------------------------------------------|
Ab|-------------------------------------------------------------------|
Db|-------------------------------------------------------------------|

Verse 2: Guitar 1 (Clean) *STRUM* PLAY 4 TIMES
Eb|-------------------------------------------------3-----------------|
Bb|-------------------------------------------------3-----------------|
Gb|--4--------------7--------------2----------------5-----------------|
Db|--2--------------5--------------0----------------5-----------------|
Ab|--2--------------5--------------0----------------3-----------------|
Db|--2--------------5--------------0----------------------------------|
                                                                      |
Verse 2: Guitar 2 (Distorted) PLAY THE 1st TIME ONLY                  |
Eb|-------------------------------------------------------------------|
Bb|-------------------------------------------------------------------|
Gb|--9----------------------------------------------------------------|
Db|-------------------------------------------------------------------|
Ab|-------------------------------------------------------------------|
Db|-------------------------------------------------------------------|


Chorus: Guitar 1 (Distorted)
Eb|-------------------------------------------------------------------|
Bb|-------------------------------------------------------------------|
Gb|-------------------------------------------------------4--4--4-----|
Db|--5-5--5-5--5-5--5-5--5-5--5-5--0-0--0-0--0-0--0-0--0--4--4--4-----|
Ab|--5-5--5-5--5-5--5-5--5-5--5-5--0-0--0-0--0-0--0-0--0--2--2--2-----|
Db|--5-5--5-5--5-5--5-5--5-5--5-5--0-0--0-0--0-0--0-0--0--------------|
                                                                      |
Chorus: Guitar 2 (Low Distortion)                                     |
Eb|-------------------------------------------------------------------|
Bb|---------10--10---------10--10---------10--10----------------------|
Gb|----12-----12------12-----12------12-----12------12-----11---------|
Db|--12--12---------12--12---------12--12---------12--12----x---------|
Ab|---------------------------------------------------------9---------|
Db|-------------------------------------------------------------------|

Chorus: Guitar 1 (Distorted)
Eb|-------------------------------------------------------------------|
Bb|-------------------------------------------------------------------|
Gb|----------------------------------5-5--5-5--5-5--5-5--5------------|
Db|--2-2--2-2--2-2--0-0--0--2--2--2--5-5--5-5--5-5--5-5--5--0--0--0---|
Ab|--2-2--2-2--2-2--0-0--0--2--2--2--3-3--3-3--3-3--3-3--3--0--0--0---|
Db|--2-2--2-2--2-2--0-0--0--2--2--2-------------------------0--0--0---|
                                                                      |
Chorus: Guitar 2 (Low Distortion)                                     |
Eb|-------------------------------------------------------------------|
Bb|-------------------------------------------------------------------|
Gb|----11---12-11-9----11---12-11-9----11---12-11-9----11---11-12-9---|
Db|--12--12----------12--12----------12--12----------12--12-----------|
Ab|-------------------------------------------------------------------|
Db|-------------------------------------------------------------------|

Chorus: Guitar 1 (Distorted)
Eb|-------------------------------------------------------------------|
Bb|-------------------------------------------------------------------|
Gb|-------------------------------------------------------4--4--4-----|
Db|--5-5--5-5--5-5--5-5--5-5--5-5--0-0--0-0--0-0--0-0--0--4--4--4-----|
Ab|--5-5--5-5--5-5--5-5--5-5--5-5--0-0--0-0--0-0--0-0--0--2--2--2-----|
Db|--5-5--5-5--5-5--5-5--5-5--5-5--0-0--0-0--0-0--0-0--0--------------|
                                                                      |
Chorus: Guitar 2 (Low Distortion)                                     |
Eb|-------------------------------------------------------------------|
Bb|---------10--10---------10--10----------10--10---------------------|
Gb|----12-----12------12-----12-------12-----12------12-----11--------|
Db|--12--12---------12--12----------12--12---------12--12----x--------|
Ab|----------------------------------------------------------9--------|
Db|-------------------------------------------------------------------|

Chorus: Guitar 1 (Distorted)
Eb|-------------------------------------------------------------------|
Bb|-------------------------------------------------------------------|
Gb|----------------------------------5-5--5-5--5-5--5-5--5--4--4--4---|
Db|--2-2--2-2--2-2--0-0--0--2--2--2--5-5--5-5--5-5--5-5--5--4--4--4---|
Ab|--2-2--2-2--2-2--0-0--0--2--2--2--3-3--3-3--3-3--3-3--3--2--2--2---|
Db|--2-2--2-2--2-2--0-0--0--2--2--2-----------------------------------|
                                                                      |
Chorus: Guitar 2 (Low Distortion)                                     |
Eb|-------------------------------------------------------------------|
Bb|-------------------------------------------------------------------|
Gb|----11---12-11-9----11---12-11-9----11---12-11-9----11---11-12-9---|
Db|--12--12----------12--12----------12--12----------12--12-----------|
Ab|-------------------------------------------------------------------|
Db|-------------------------------------------------------------------|

Bridge: Guitar 1 (Distorted)
Eb|-------------------------------------------------------------------|
Bb|-------------------------------------------------------------------|
Gb|-------------------------------------5--5--5-5-5-5--4--4--4-4-4-4-4|
Db|------------555555------------5-4----5--5--5-5-5-5--5--5--5-5-5-5-5|
Ab|--0-h2-2-2----------0-h2-2-2------5--3--3--3-3-3-3--2--2--2-2-2-2-2|
Db|--0-h2-2-2----------0-h2-2-2---------------------------------------|
                                                                      |
Bridge: Guitar 2 (Low Distortion)                                     |
Eb|-------------------------------------------------------------------|
Bb|--------------------------------------------10--10-----------------|
Gb|---------------------------------------12-----12------11---11-12-9-|
Db|-------------------------------------12--12---------12--12---------|
Ab|-------------------------------------------------------------------|
Db|-------------------------------------------------------------------|

Bridge: Guitar 1 (Distorted)
Eb|-------------------------------------------------------------------|
Bb|-------------------------------------------------------------------|
Gb|-------------------------------------5--5--5-5-5-5--4--4--4-4-4-4-4|
Db|------------555555------------5-4----5--5--5-5-5-5--5--5--5-5-5-5-5|
Ab|--0-h2-2-2----------0-h2-2-2------5--3--3--3-3-3-3--2--2--2-2-2-2-2|
Db|--0-h2-2-2----------0-h2-2-2---------------------------------------|
                                                                      |
Bridge: Guitar 2 (Low Distortion)                                     |
Eb|-------------------------------------------------------------------|
Bb|--------------------------------------------10--10-----------------|
Gb|---------------------------------------12-----12------11---11-12-9-|
Db|-------------------------------------12--12---------12--12---------|
Ab|-------------------------------------------------------------------|
Db|-------------------------------------------------------------------|

Bridge: Guitar 1 (Distorted)
Eb|-------------------------------------------------------------------|
Bb|-------------------------------------------------------------------|
Gb|------------------------------------5------------------------------|
Db|--2----------------0----------------5------------------------------|
Ab|--2----------------0----------------3------------------------------|
Db|--2----------------0-----------------------------------------------|
                                                                      |
Bridge: Guitar 2 (Low Distortion)                                     |
Eb|-------------------------------------------------------------------|
Bb|-------------------------------------------------------------------|
Gb|-------11---12----------12---11-----9------------------------------|
Db|--12---------------12----------------------------------------------|
Ab|-------------------------------------------------------------------|
Db|-------------------------------------------------------------------|

Chorus: Guitar 1 (Distorted)
Eb|-------------------------------------------------------------------|
Bb|-------------------------------------------------------------------|
Gb|-------------------------------------------------------4--4--4-----|
Db|--5-5--5-5--5-5--5-5--5-5--5-5--0-0--0-0--0-0--0-0--0--4--4--4-----|
Ab|--5-5--5-5--5-5--5-5--5-5--5-5--0-0--0-0--0-0--0-0--0--2--2--2-----|
Db|--5-5--5-5--5-5--5-5--5-5--5-5--0-0--0-0--0-0--0-0--0--------------|
                                                                      |
Chorus: Guitar 2 (Low Distortion)                                     |
Eb|-------------------------------------------------------------------|
Bb|---------10--10---------10--10---------10--10----------------------|
Gb|----12-----12------12-----12------12-----12------12-----11---------|
Db|--12--12---------12--12---------12--12---------12--12----x---------|
Ab|---------------------------------------------------------9---------|
Db|-------------------------------------------------------------------|

Chorus: Guitar 1 (Distorted)
Eb|-------------------------------------------------------------------|
Bb|-------------------------------------------------------------------|
Gb|----------------------------------5-5--5-5--5-5--5-5--5------------|
Db|--2-2--2-2--2-2--0-0--0--2--2--2--5-5--5-5--5-5--5-5--5--0--0--0---|
Ab|--2-2--2-2--2-2--0-0--0--2--2--2--3-3--3-3--3-3--3-3--3--0--0--0---|
Db|--2-2--2-2--2-2--0-0--0--2--2--2-------------------------0--0--0---|
                                                                      |
Chorus: Guitar 2 (Low Distortion)                                     |
Eb|-------------------------------------------------------------------|
Bb|-------------------------------------------------------------------|
Gb|----11---12-11-9----11---12-11-9----11---12-11-9----11---11-12-9---|
Db|--12--12----------12--12----------12--12----------12--12-----------|
Ab|-------------------------------------------------------------------|
Db|-------------------------------------------------------------------|

Chorus: Guitar 1 (Distorted)
Eb|-------------------------------------------------------------------|
Bb|-------------------------------------------------------------------|
Gb|-------------------------------------------------------4--4--4-----|
Db|--5-5--5-5--5-5--5-5--5-5--5-5--0-0--0-0--0-0--0-0--0--4--4--4-----|
Ab|--5-5--5-5--5-5--5-5--5-5--5-5--0-0--0-0--0-0--0-0--0--2--2--2-----|
Db|--5-5--5-5--5-5--5-5--5-5--5-5--0-0--0-0--0-0--0-0--0--------------|
                                                                      |
Chorus: Guitar 2 (Low Distortion)                                     |
Eb|-------------------------------------------------------------------|
Bb|---------10--10---------10--10----------10--10---------------------|
Gb|----12-----12------12-----12-------12-----12------12-----11--------|
Db|--12--12---------12--12----------12--12---------12--12----x--------|
Ab|----------------------------------------------------------9--------|
Db|-------------------------------------------------------------------|

Chorus: Guitar 1 (Distorted)
Eb|-------------------------------------------------------------------|
Bb|-------------------------------------------------------------------|
Gb|----------------------------------5-5--5-5--5-5--5-5--5--4--4--4---|
Db|--2-2--2-2--2-2--0-0--0--2--2--2--5-5--5-5--5-5--5-5--5--4--4--4---|
Ab|--2-2--2-2--2-2--0-0--0--2--2--2--3-3--3-3--3-3--3-3--3--2--2--2---|
Db|--2-2--2-2--2-2--0-0--0--2--2--2-----------------------------------|
                                                                      |
Chorus: Guitar 2 (Low Distortion)                                     |
Eb|-------------------------------------------------------------------|
Bb|-------------------------------------------------------------------|
Gb|----11---12-11-9----11---12-11-9----11---12-11-9----11---11-12-9---|
Db|--12--12----------12--12----------12--12----------12--12-----------|
Ab|-------------------------------------------------------------------|
Db|-------------------------------------------------------------------|

Outro: Guitar 1 (Distorted)
Eb|-------------------------------------------------------------------|
Bb|-------------------------------------------------------------------|
Gb|------------------4--4---4--4--4--5--5---5--5--5-----------4--4--4-|
Db|--2--2---2--2--2--4--4---4--4--4--5--5---5--5--5--5--5--5--4--4--4-|
Ab|--2--2---2--2--2--2--2---2--2--2--3--3---3--3--3--5--5--5--2--2--2-|
Db|--2--2---2--2--2----------------------------------5--5--5----------|
                                                                      |
Outro: Guitar 2 (Distorted)                                           |
Eb|-------------------------------------------------------------------|
Bb|--5---------------7--------------/13-----------------------10------|
Gb|--------------------------------------------------------12----11-12|
Db|-------------------------------------------------------------------|
Ab|-------------------------------------------------------------------|
Db|-------------------------------------------------------------------|

Outro: Guitar 1 (Distorted)
Eb|-------------------------------------------------------------------|
Bb|-------------------------------------------------------------------|
Gb|-------------------------------------------------------------------|
Db|--2----------------------------------------------------------------|
Ab|--2----------------------------------------------------------------|
Db|--2----------------------------------------------------------------|
                                                                      |
Outro: Guitar 1 (Distorted)                                           |
Eb|-------------------------------------------------------------------|
Bb|-------------------------------------------------------------------|
Gb|--9----------------------------------------------------------------|
Db|-------------------------------------------------------------------|
Ab|-------------------------------------------------------------------|
Db|-------------------------------------------------------------------|

Finished

            
            
Suggest correction
Creating personal tab
Creating personal tab
You can edit any tab online and save it as your Personal.

You can edit, replace or remove any tab part or add personal notes – all changes will be seen only by you.

Personal tabs can be accessed anytime from any device, even offline.
Learn more »
comments
print report bad tab
9 comments total. Showing first comments.
+5 reply
ambient203 233 Sep 30, 2009 07:07 AM

you're a champion for getting this up so fast, played it through once at it sounds awesome. such a great song, breaking benjamin put out an amazing album. excellent work UB

+3 reply
knights70 190 Sep 30, 2009 07:10 PM

What can I say, YOUR'E THE MAN!!!

+2 reply
TroyFM 165 Oct 30, 2009 12:36 AM

great tab, just the intro has one note missing.

Intro: Guitar 1 (Clean)
Eb|-------------------------------------------------------------------|
Bb|-------------------------------------------------------------------|
Gb|--------------------------0--------------0--------------0----------|
Db|--------4------------7------4---------4-------------4-----4--------|
Ab|-----2-------------5---------------3------------------5-----5------|
Db|--2--------------5-----*5*-------------------------0---------------|

it's the '5' on the E (Db) string.

guest
You may want to rate the tab now too:
select rating
Wanna post a correction for this tab? Suggest correction