Oops, an error
Loading. Please wait.
We have an official Without You tab made by UG professional guitarists. Check out the tab »
×
45,593 views 126 this week
14 commentsread comments
1 2 3 4 5
x 12
add to favorites
×
Save as Personal and add changes to this tab that will be seen only by you. Learn more ›
×
You can save this tab as Personal to edit and correct it or add notes. All changes will be seen only by you. Learn more »
launch autoscroll
font size
0
reset
how to read this tab
guitar tuner
edit
Autoscroll
slow
fast
+/-
esc
set tempo
stop
Breaking Benjamin
Without You
Tabbed by U B the band
Tuning Db Ab Db Gb Bb Eb

Legend
x-muted strum

Intro: Guitar 1 (Distorted)
Eb|---------------------------------------------------------------------------|
Bb|---------------------------------------------------------------------------|
Gb|-----------------------------------------x-x-------------------------------|
Db|--4--4--4--4--4-4--7--7--7--7--7-7--0--0-x-x-0--0--0-0--2--2--2--2-x-0--4--|
Ab|--4--4--4--4--4-4--7--7--7--7--7-7--0--0-x-x-0--0--0-0--2--2--2--2-x-0--4--|
Db|--4--4--4--4--4-4--7--7--7--7--7-7--0--0-x-x-0--0--0-0--2--2--2--2-x-0--4--|
                                                                              |
Intro: Guitar 2 (Distorted)                                                   |
Eb|------------------------------------------------------------------------0--|
Bb|-----7-9-10-9---------7-9-10-9----------7-9--10-9-7--------9---10---9---5--|
Gb|--6-----------9----6-----------9----7-------------------9----9----------6--|
Db|---------------------------------------------------------------------------|
Ab|---------------------------------------------------------------------------|
Db|---------------------------------------------------------------------------|

Verse 1: Guitar 1 (Distorted)
Eb|---------------------------------------------------------------------------|
Bb|---------------------------------------------------------------------------|
Gb|---------------------------------------------------------------------------|
Db|--(4)----------------------------------------------------------------------|
Ab|--(4)----------------------------------------------------------------------|
Db|--(4)----------------------------------------------------------------------|
                                                                              |
Verse 1: Guitar 2 (Low Distorted)                                             |
Eb|--(0)----------------------------------------------------------------------|
Bb|--(5)--------------------------------5-------------0-----------------------|
Gb|--(6)---------------------------------------6----------6-------------------|
Db|---------------------------------------------------------------------------|
Ab|---------------------------------------------------------------------------|
Db|---------------------------------------------------------------------------|

Verse 1: Guitar 2 (Low Distorted)
Eb|---------------------------------------------------------------------------|
Bb|--5---------------------------------5-------------0------------------------|
Gb|---------6---------------------------------6----------6--------------------|
Db|---------------------------------------------------------------------------|
Ab|---------------------------------------------------------------------------|
Db|---------------------------------------------------------------------------|

Pre Chorus: Guitar 1 (Distorted)
Eb|---------------------------------------------------------------------------|
Bb|---------------------------------------------------------------------------|
Gb|---------------------------------------------------2-----------------------|
Db|--x-x-0--------------2--------------4--------------2----------2------------|
Ab|--x-x-0--------------2--------------4--------------0----------2------------|
Db|--x-x-0--------------2--------------4-------------------------2------------|
                                                                              |
Pre Chorus: Guitar 2 (Low Distortion)                                         |
Eb|----------------------------------------0----------------------------------|
Bb|--------------2----------0---2--------------2----------3---2---------------|
Gb|----------2----------------------------------------------------------------|
Db|------0--------------2--------------4--------------------------------------|
Ab|---------------------------------------------------0--------------2---4----|
Db|---------------------------------------------------------------------------|

Pre Chorus: Guitar 1 (Distorted)
Eb|---------------------------------------------------------------------------|
Bb|---------------------------------------------------------------------------|
Gb|-----------------------------------------------2---------------------------|
Db|--0--------------2--------------4--------------2----------2----------------|
Ab|--0--------------2--------------4--------------0----------2----------------|
Db|--0--------------2--------------4-------------------------2----------------|
                                                                              |
Pre Chorus: Guitar 2 (Low Distortion)                                         |
Eb|------------------------------------0--------------------------------------|
Bb|----------2----------0---2--------------2----------3---2-------------------|
Gb|------2--------------------------------------------------------------------|
Db|--0--------------2--------------4------------------------------------------|
Ab|-----------------------------------------------0--------------2---4--------|
Db|---------------------------------------------------------------------------|

Pre Chorus: Guitar 1 (Distorted)
Eb|---------------------------------------------------------------------------|
Bb|---------------------------------------------------------------------------|
Gb|---------------------------------------------------------------------------|
Db|--0--------------2---------------------------------------------------------|
Ab|--0--------------2---------------------------------------------------------|
Db|--0--------------2---------------------------------------------------------|
                                                                              |
Pre Chorus: Guitar 2 (Low Distortion)                                         |
Eb|---------------------------------------------------------------------------|
Bb|----------2----------0---2-------------------------------------------------|
Gb|------2----------------------2---1-----------------------------------------|
Db|--0--------------2---------------------------------------------------------|
Ab|---------------------------------------------------------------------------|
Db|---------------------------------------------------------------------------|

Chorus: Guitar 1 (Distorted) PLAY 2 TIMES
Eb|---------------------------------------------------------------------------|
Bb|---------------------------------------------------------------------------|
Gb|------------------------------------2--2--2--2--2--------------------------|
Db|--4--4--4--4--4----0--0--0--0--0----2--2--2--2--2----2--2--2--2------0-----|
Ab|--4--4--4--4--4----0--0--0--0--0----0--0--0--0--0----2--2--2--2------0-----|
Db|--4--4--4--4--4----0--0--0--0--0---------------------2--2--2--2------0-----|
                                                                              |
Chorus: Guitar 2 (Low Distortion)                                             |
Eb|--------9--9--9-9--------10-10-1010-12-12----------------------------------|
Bb|--7--7-------------10-10------------------10-10-1010-12-12-9--9--9-9-------|
Gb|---------------------------------------------------------------------------|
Db|---------------------------------------------------------------------------|
Ab|---------------------------------------------------------------------------|
Db|---------------------------------------------------------------------------|

Post Chorus: Guitar 1 (Distorted)
Eb|---------------------------------------------------------------------------|
Bb|---------------------------------------------------------------------------|
Gb|---------------------------------------------------------------------------|
Db|--4---4---x--x--4---4---4--4-----7----7----0--------x---2--------4---------|
Ab|--4---4---x--x--4---4---4--4-----7----7----0--------x---2--------4---------|
Db|--4---4---x--x--4---4---4--4-----7----7----0--------x---2--------4---------|
                                                                              |
Post Chorus: Guitar 2 (Distorted)                                             |
Eb|-----------------------------------------------------------------0---------|
Bb|------7---9--10---9-------------------10---7---------------------5---------|
Gb|--6-------------------9----------6-------------------------------6---------|
Db|---------------------------------------------------------------------------|
Ab|---------------------------------------------------------------------------|
Db|---------------------------------------------------------------------------|

Verse 2: Guitar 1 (Distorted)
Eb|---------------------------------------------------------------------------|
Bb|---------------------------------------------------------------------------|
Gb|---------------------------------------------------------------------------|
Db|--(4)----------------------------------------------------------------------|
Ab|--(4)----------------------------------------------------------------------|
Db|--(4)----------------------------------------------------------------------|
                                                                              |
Verse 2: Guitar 2 (Low Distorted)                                             |
Eb|--(0)----------------------------------------------------------------------|
Bb|--(5)--------------------------------5-------------0-----------------------|
Gb|--(6)---------------------------------------6----------6-------------------|
Db|---------------------------------------------------------------------------|
Ab|---------------------------------------------------------------------------|
Db|---------------------------------------------------------------------------|

Verse 2: Guitar 2 (Low Distorted)
Eb|---------------------------------------------------------------------------|
Bb|--5---------------------------------5-------------0------------------------|
Gb|---------6---------------------------------6----------6--------------------|
Db|---------------------------------------------------------------------------|
Ab|---------------------------------------------------------------------------|
Db|---------------------------------------------------------------------------|

Pre Chorus: Guitar 1 (Distorted)
Eb|---------------------------------------------------------------------------|
Bb|---------------------------------------------------------------------------|
Gb|---------------------------------------------------2-----------------------|
Db|--x-x-0--------------2--------------4--------------2----------2------------|
Ab|--x-x-0--------------2--------------4--------------0----------2------------|
Db|--x-x-0--------------2--------------4-------------------------2------------|
                                                                              |
Pre Chorus: Guitar 2 (Low Distortion)                                         |
Eb|----------------------------------------0----------------------------------|
Bb|--------------2----------0---2--------------2----------3---2---------------|
Gb|----------2----------------------------------------------------------------|
Db|------0--------------2--------------4--------------------------------------|
Ab|---------------------------------------------------0--------------2---4----|
Db|---------------------------------------------------------------------------|

Pre Chorus: Guitar 1 (Distorted)
Eb|---------------------------------------------------------------------------|
Bb|---------------------------------------------------------------------------|
Gb|---------------------------------------------------------------------------|
Db|--0--------------2---------------------------------------------------------|
Ab|--0--------------2---------------------------------------------------------|
Db|--0--------------2---------------------------------------------------------|
                                                                              |
Pre Chorus: Guitar 2 (Low Distortion)                                         |
Eb|---------------------------------------------------------------------------|
Bb|----------2----------0---2-------------------------------------------------|
Gb|------2----------------------2---1-----------------------------------------|
Db|--0--------------2---------------------------------------------------------|
Ab|---------------------------------------------------------------------------|
Db|---------------------------------------------------------------------------|

Chorus: Guitar 1 (Distorted) PLAY 2 TIMES
Eb|---------------------------------------------------------------------------|
Bb|---------------------------------------------------------------------------|
Gb|------------------------------------2--2--2--2--2--------------------------|
Db|--4--4--4--4--4----0--0--0--0--0----2--2--2--2--2----2--2--2--2------0-----|
Ab|--4--4--4--4--4----0--0--0--0--0----0--0--0--0--0----2--2--2--2------0-----|
Db|--4--4--4--4--4----0--0--0--0--0---------------------2--2--2--2------0-----|
                                                                              |
Chorus: Guitar 2 (Low Distortion)                                             |
Eb|--------9--9--9-9--------10-10-1010-12-12----------------------------------|
Bb|--7--7-------------10-10------------------10-10-1010-12-12-9--9--9-9-------|
Gb|---------------------------------------------------------------------------|
Db|---------------------------------------------------------------------------|
Ab|---------------------------------------------------------------------------|
Db|---------------------------------------------------------------------------|

Bridge: Guitar 1 (Distorted)
Eb|---------------------------------------------------------------------------|
Bb|---------------------------------------------------------------------------|
Gb|---------------------------------------------------------------------------|
Db|--4--4--x--x--2--4---2------0--0--0-0--0---4--4--4-4--4---0--0--0-0--0-----|
Ab|--4--4--x--x--2--4---2------0--0--0-0--0---4--4--4-4--4---0--0--0-0--0-----|
Db|--4--4--x--x--2--4---2------0--0--0-0--0---4--4--4-4--4---0--0--0-0--0-----|

Bridge: Guitar 1 (Distorted)
Eb|---------------------------------------------------------------------------|
Bb|---------------------------------------------------------------------------|
Gb|---------------------------------------------------------------------------|
Db|--2--2--2-2--2---0--0--0-0--0---4--4--4-4--4---0--0--0-0--0---2--2--2-2--2-|
Ab|--2--2--2-2--2---0--0--0-0--0---4--4--4-4--4---0--0--0-0--0---2--2--2-2--2-|
Db|--2--2--2-2--2---0--0--0-0--0---4--4--4-4--4---0--0--0-0--0---2--2--2-2--2-|

Chorus: Guitar 1 (Distorted) PLAY 2 TIMES
Eb|---------------------------------------------------------------------------|
Bb|---------------------------------------------------------------------------|
Gb|------------------------------------2--2--2--2--2--------------------------|
Db|--4--4--4--4--4----0--0--0--0--0----2--2--2--2--2----2--2--2--2------0-----|
Ab|--4--4--4--4--4----0--0--0--0--0----0--0--0--0--0----2--2--2--2------0-----|
Db|--4--4--4--4--4----0--0--0--0--0---------------------2--2--2--2------0-----|
                                                                              |
Chorus: Guitar 2 (Low Distortion)                                             |
Eb|--------9--9--9-9--------10-10-1010-12-12----------------------------------|
Bb|--7--7-------------10-10------------------10-10-1010-12-12-9--9--9-9-------|
Gb|---------------------------------------------------------------------------|
Db|---------------------------------------------------------------------------|
Ab|---------------------------------------------------------------------------|
Db|---------------------------------------------------------------------------|

Outro Chorus: Guitar 1 (Distorted) PLAY 2 TIMES
Eb|---------------------------------------------------------------------------|
Bb|---------------------------------------------------------------------------|
Gb|------------------------------------2--2--2--2--2--------------------------|
Db|--4--4--4--4--4----0--0--0--0--0----2--2--2--2--2----2--2--2--2--2---------|
Ab|--4--4--4--4--4----0--0--0--0--0----0--0--0--0--0----2--2--2--2--2---------|
Db|--4--4--4--4--4----0--0--0--0--0---------------------2--2--2--2--2---------|
                                                                              |
Outro Chorus: Guitar 2 (Low Distortion)                                       |
Eb|--------9--9--9-9--------10-10-1010-12-12----------------------------------|
Bb|--7--7-------------10-10------------------10-10-1010-12-12-9--9--9---------|
Gb|---------------------------------------------------------------------------|
Db|---------------------------------------------------------------------------|
Ab|---------------------------------------------------------------------------|
Db|---------------------------------------------------------------------------|

Finished

            
            
Suggest correction
Creating personal tab
Creating personal tab
You can edit any tab online and save it as your Personal.

You can edit, replace or remove any tab part or add personal notes – all changes will be seen only by you.

Personal tabs can be accessed anytime from any device, even offline.
Learn more »
comments
print report bad tab
14 comments total. Showing first comments.
0 reply
ambient203 233 Nov 10, 2009 09:05 PM

UB, youre the man, this a great tab. i noticed that there might be an Ab chord after the Eb in the pre-chorus, this is how i play it

Gb|-------------------------2------------------------|
Db|----------4--------------2----------2--------7----|
Ab|----------4--------------0----------2--------7----|
Db|----------4-------------------------2--------7----|

i dunno if thats right but i think i hear it. anyway, excellent job man, the effort is much appreciated.

0 reply
Legend Jedicsc 102 Nov 11, 2009 07:30 AM

Awesome! You finally posted it!

0 reply
Corrupt_Ideals 20 Nov 12, 2009 04:44 AM

I'm not sure about the Guitar 2 part of this one. That's the part that I prefer to play, and it just doesn't sound right. Maybe I'm playing it wrong, but it doesn't sound correct to me.

Still love the tabs you do man, keep it up.

guest
You may want to rate the tab now too:
select rating
Wanna post a correction for this tab? Suggest correction