Oops, an error
Loading. Please wait.

Hello Fascination tab

version 2
version 2

Whole song

2,906 views 1 this week
2 commentsread comments
1 2 3 4 5
3 more votes to show rating
add to favorites
×
Save as Personal and add changes to this tab that will be seen only by you. Learn more ›
×
You can save this tab as Personal to edit and correct it or add notes. All changes will be seen only by you. Learn more »
launch autoscroll
font size
0
reset
how to read this tab
guitar tuner
edit
Autoscroll
slow
fast
+/-
esc
set tempo
stop
Breathe Carolina - Hello Fascination
Tabber: LightningLogan

This is Hello Fascination by Breathe Carolina. I know most of its all synth but ive 
the guitar and the chords kinda. could be wrong cause i just did it by ear. The added 
I suggest using are Chorus Flange, Phaser, and Reverb.

Main Riff:
D#|----------------------------------------------------------|
A#|----------------------------------------------------------|
F#|----------------------------------------------------------|
C#|----------------------------------------------------------|
G#|----------------------------------------------------------|
C#|-0-0000-0-0000-0-0000-0-00005558888-8-8888-8/3333-3\777-7-|

Verse:
D#|----------------------|
A#|----------------------|
F#|----------------------|
C#|-0~-----------8~--3/7-|
G#|-0~-----------8~--3/7-|
C#|-0~-----------8~--3/7-|

Chorus:
D#|-------------------|
A#|-------------------|
F#|-------------------|
C#|-10---5---12---7---|
G#|-10x8-5x8-12x8-7x8-|
C#|-10---5---12---7---|

Breakdown:
D#|---------------------------------------------------|
A#|---------------------5*----------------------------|
F#|---------------------------------------------------|
C#|------------------------------------0---0---0-00-0-|
G#|0---0--0-00-0----0-0----0-00-0--12\-0---0---0-00-0-|
C#|0---0--0-00-0----0-0----0-00-0--12\-0---0---0-00-0-|
   .   .  . .. .    . .    . .. .

D#|-------------|
A#|-------------|
F#|-------------|
C#|-------------|
G#|-------------|
C#|-8x8-3x4-7x4-|
    ...........


/ or \ = slide
. = palm mute
* = pinch harmonic
x4 = play the chord 4 times...If you actually wondered...then youre an idiot
x8 = play the chord 8 times...If you actually wondered...then youre an idiot

            
            
Suggest correction
Creating personal tab
Creating personal tab
You can edit any tab online and save it as your Personal.

You can edit, replace or remove any tab part or add personal notes – all changes will be seen only by you.

Personal tabs can be accessed anytime from any device, even offline.
Learn more »
Give kudos to tab author, rate the tab!
1 2 3 4 5
comments
print report bad tab
2 comments total.
0 reply
Sam Rulez D00d 948 May 01, 2010 09:26 AM

chorus should be:
|-------------------------------
|-------------------------------
|-------------------------------
|-8---3---7--10-8---3---10---11-
|-8---3---7--10-8---3---10---12-
|-8---3---7--10-8---3---10---11-

Bb F Am (C for a couple beats)
Bb F C A

i pretty sure this is correct

0 reply
NeverShoutAx7 10 Aug 23, 2013 05:44 AM

Drop C tuning? :L

guest
You may want to rate the tab now too:
select rating
Wanna post a correction for this tab? Suggest correction