Oops, an error
Loading. Please wait.

By And By tab

10,701 views 12 this week
no commentswrite comment
1 2 3 4 5
x 6
add to favorites
×
Save as Personal and add changes to this tab that will be seen only by you. Learn more ›
×
You can save this tab as Personal to edit and correct it or add notes. All changes will be seen only by you. Learn more »
launch autoscroll
font size
0
reset
how to read this tab
guitar tuner
edit
Autoscroll
slow
fast
+/-
esc
set tempo
stop
Author
Arrangement based on a transcription by O. Cloirec
Listen the song to take the rhythm.
Good luck to add the voice at the same time :o)

Intro

--------------------------|------------------------|
--------------------------|------------------------|
----------------------1---|---------------------7--|
--------------1-----------|-----------------4------|
---4--------------2-------|--4------6--------------|
------0---2---------------|-----0-------7----------|

E                 E                 A (5e case)       E
.1.&.2.&.3.&.4.&.|.1.&.2.&.3.&.4.&.|.1.&.2.&.3.&.4.&.|.1.&.2.&.3.&.4.&.|

---------0-------|---------0-------|---------7-------|---------0-------|
---------5-------|---------5-------|--------(0)---5--|---------5-------|
-----4-------4---|-----4-------4---|-----6-----------|-----4-------4---|
-6---------------|-----------------|--7--------------|-6---------------|
-----------------|-----------------|-----------------|-----------------|
-----------------|--0--------------|-----------------|-----------------|

E                 Eadd2             B                 E
.1.&.2.&.3.&.4.&.|.1.&.2.&.3.&.4.&.|.1.&.2.&.3.&.4.&.|.1.&.2.&.3.&.4.&.|

---------0-------|-----------------|-----------------|---------0-------|
---------5-------|-----------------|-----------------|---------5-------|
-----4-------4---|-------------4---|-----------------|-----4-------4---|
-----------------|-----4---6-------|-------------4---|-6---------------|
-----------------|-7---------------|-2---4-s-6-------|-----------------|
--0--------------|-----------------|-----------------|-----------------|

E                 Eadd2             A (5e case)       E
.1.&.2.&.3.&.4.&.|.1.&.2.&.3.&.4.&.|.1.&.2.&.3.&.4.&.|.1.&.2.&.3.&.4.&.|

---------0-------|-----------------|---------5-------|---------0-------|
---------5-------|-----------------|-----------------|---------5-------|
-----4-------4---|-------------4---|-----6-------6---|-----4-------4---|
-----------------|-----4---6-------|--7--------------|-6---------------|
-----------------|-7---------------|-----------------|-----------------|
--0--------------|-----------------|-----------------|-----------------|

E                 Eadd2             B                 E
.1.&.2.&.3.&.4.&.|.1.&.2.&.3.&.4.&.|.1.&.2.&.3.&.4.&.|.1.&.2.&.3.&.4.&.|

---------0-------|-----------------|-----------------|---------0-------|
---------5-------|-----------------|-----------------|---------5-------|
-----4-------4---|-------------4---|-----------------|-----4-------4---|
-----------------|-----4---6-------|-------------4---|-6---------------|
-----------------|-7---------------|-2---4-s-6-------|-----------------|
--0--------------|-----------------|-----------------|-----------------|



Versus 1 


   E                 Eadd2             A (5e case)       E
   .1.&.2.&.3.&.4.&.|.1.&.2.&.3.&.4.&.|.1.&.2.&.3.&.4.&.|.1.&.2.&.3.&.4.&.|

||----------0-------|-----------------|---------5-------|---------0-------|
||----------5-------|-----------------|-----------------|---------5-------|
||●-----4-------4---|-------------4---|-----6-------6---|-----4-------4---|
||●-----------------|-----4---6-------|--7--------------|-6---------------|
||------------------|-7---------------|-----------------|-----------------|
||---0--------------|-----------------|-----------------|-----------------|

E                 Eadd2             B                 E
.1.&.2.&.3.&.4.&.|.1.&.2.&.3.&.4.&.|.1.&.2.&.3.&.4.&.|.1.&.2.&.3.&.4.&.||

---------0-------|-----------------|-----------------|---------0-------||
---------5-------|-----------------|-----------------|---------5-------||
-----4-------4---|-------------4---|-----------------|-----4-------4--●||
-----------------|-----4---6-------|-------------4---|-6--------------●||
-----------------|-7---------------|-2---4-s-6-------|-----------------||
--0--------------|-----------------|-----------------|-----------------||

Eadd9 (omit E)
.1.&.2.&.3.&.4.&.|

-----------------|
-----------------|
------4----------|
---6-----4-------|
-------------7---|
-----------------|




Chorus 


C#min (4e case)   B                 E                 Eadd9 (omit E)
.1.&.2.&.3.&.4.&.|.1.&.2.&.3.&.4.&.|.1.&.2.&.3.&.4.&.|.1.&.2.&.3.&.4.&.|

----------------|------------------|---------0-------|-----------------|
---------5------|------------------|---------5-------|-----------------|
-----6-------6--|------------------|-----4-------4---|-----4-----------|
----------------|--------------4---|-6---------------|-6-------4-------|
-4--------------|------4---6-------|-----------------|--------------7--|
----------------|--7---------------|-----------------|-----------------|

C#min (4e case)   B                 E                 Eadd9 (omit E)
.1.&.2.&.3.&.4.&.|.1.&.2.&.3.&.4.&.|.1.&.2.&.3.&.4.&.|.1.&.2.&.3.&.4.&.|

----------------|------------------|---------0-------|-----------------|
---------5------|------------------|---------5-------|-----------------|
-----6-------6--|------------------|-----4-------4---|-----4-----------|
----------------|----------4---7---|-6---------------|-6-------4-------|
-4--------------|--6---------------|-----------------|-------------7---|
----------------|------7-----------|-----------------|-----------------|


C#min (4e case)   B                 E                 Eadd9 (omit E)
.1.&.2.&.3.&.4.&.|.1.&.2.&.3.&.4.&.|.1.&.2.&.3.&.4.&.|.1.&.2.&.3.&.4.&.|

----------------|------------------|---------0-------|-----------------|
---------5------|------------------|---------5-------|-----------------|
-----6-------6--|------------------|-----4-------4---|-----4-----------|
----------------|--------------4---|-6---------------|-6-------4-------|
-4--------------|------4---6-------|-----------------|--------------7--|
----------------|--7---------------|-----------------|-----------------|


C#min (4e case)   B                 E                 Eadd9 (omit E)
.1.&.2.&.3.&.4.&.|.1.&.2.&.3.&.4.&.|.1.&.2.&.3.&.4.&.|.1.&.2.&.3.&.4.&.|

----------------|------------------|---------0-------|---------4-------|
---------5------|------------------|---------5-------|---------5-------|
-----6-------6--|------------------|-----4-------4---|-----4-------4---|
----------------|----------4---7---|-6---------------|-6---------------|
-4--------------|--6---------------|-----------------|-----------------|
----------------|------7-----------|-----------------|-----------------|




Break

A6(5e case)       E                                   
.1.&.2.&.3.&.4.&.|.1.&.2.&.3.&.4.&.|

---------5-------|---------0-------|
-----------------|---------5-------|
-----6-------6---|-----4-------4---|
--7--------------|-6---------------|
-----------------|-----------------|
-----------------|-----------------|

E                 Eadd2             B                 E
.1.&.2.&.3.&.4.&.|.1.&.2.&.3.&.4.&.|.1.&.2.&.3.&.4.&.|.1.&.2.&.3.&.4.&.|

---------0-------|-----------------|-----------------|---------0-------|
---------5-------|-----------------|-----------------|---------5-------|
-----4-------4---|-------------4---|-----------------|-----4-------4---|
-----------------|-----4---6-------|-------------4---|-6---------------|
-----------------|-7---------------|-2---4-s-6-------|-----------------|
--0--------------|-----------------|-----------------|-----------------|

E                 Eadd2             A (5e case)       E
.1.&.2.&.3.&.4.&.|.1.&.2.&.3.&.4.&.|.1.&.2.&.3.&.4.&.|.1.&.2.&.3.&.4.&.|

---------0-------|-----------------|---------5-------|---------0-------|
---------5-------|-----------------|-----------------|---------5-------|
-----4-------4---|-------------4---|-----6-------6---|-----4-------4---|
-----------------|-----4---6-------|--7--------------|-6---------------|
-----------------|-7---------------|-----------------|-----------------|
--0--------------|-----------------|-----------------|-----------------|

E                 Eadd2             B                 E
.1.&.2.&.3.&.4.&.|.1.&.2.&.3.&.4.&.|.1.&.2.&.3.&.4.&.|.1.&.2.&.3.&.4.&.|

---------0-------|-----------------|-----------------|---------0-------|
---------5-------|-----------------|-----------------|---------5-------|
-----4-------4---|-------------4---|-----------------|-----4-------4---|
-----------------|-----4---6-------|-------------4---|-6---------------|
-----------------|-7---------------|-2---4-s-6-------|-----------------|
--0--------------|-----------------|-----------------|-----------------|


Lyrics:

listen close, as close as I am to you
like the bell of liberty, I’ll ring a sound that’s true
and days go by and seasons too
in time our love may digress with the words we can renew

I’ll tell you that I
I love you by and by
I don’t know if I’d survive
without a friend like you in my life

and I know words can be the worst to prevail
how it is I feel for you it’s hard for me to say
but if we keep it simple I think it’s better that way
tangled words tend to lead my messages astray

I’ll tell you that I
I love you by and by
I don’t know if I’d survive
without a friend like you in my life

this web we weave holds us hand in hand
and if we loosen our grips we may weaken these strands
so lets reinforce our love and let it echo through the land
and if we don’t we may find ourselves washed up with the sand

I’ll tell you that I
I love you by and by
I don’t know if I’d survive
without a friend like you in my life

I’ll tell you that I
I love you by and by
I don’t know if I’d survive
without a friend like you in my life


            
            
Suggest correction
Creating personal tab
Creating personal tab
You can edit any tab online and save it as your Personal.

You can edit, replace or remove any tab part or add personal notes – all changes will be seen only by you.

Personal tabs can be accessed anytime from any device, even offline.
Learn more »
comments
print report bad tab
guest
You may want to rate the tab now too:
select rating
Wanna post a correction for this tab? Suggest correction